Oops, an error
Loading. Please wait.

Mizutamari Ukulele Chords

2,601 views 18 this week
no commentswrite comment
1 2 3 4 5
2 more votes to show rating
add to favorites
launch autoscroll
font size
0
reset
transpose
0
reset
display chords
guitar tuner
Autoscroll
slow
fast
+/-
esc
set tempo
stop
Help us to improve Ultimate-Guitar.com Take our survey!
×
Author
Capo
5th fret
Major Albums by Kobayashi Kiyoshi, link: http://www.maniadb.com/artist.asp?p=368712


Mizutamari ("Puddle"), slow version.
Kiyoshi Kobayashi
Ukulele tuning: gcea
Guitar tuning: standard eadghe with capo on 5 freth.
(metonymo tab)


Part 1
   :       .       .       .       :       .       .       .
---7---7-------7---7---5-------5---5---5-------5---5---3-------3----|
---5---------5-----4---------4-----3---------3-----2---------2------|
---5-------5-------5-------5-------4-------4-------3-------3--------|
--------------------------------------------------------------------|

   :       .       .       .       :       .       .       .
---3---3-------3---2-----------2---0-------0-------0--0----0--0-----|
---1---------1-----1---------1-----0-------0-------0--0----0--0-----|
---2-------2-------2-------2-------0-------0-------0--0----0--0-----|
--------------------------------------------------------------------|

Part 2
   :       .       .       .       :       .       .       .
---7---7-------7---7---5-------5---5---5-------5---5---3-------3----|
---5---------5-----4---------4-----3---------3-----2---------2------|
---5-------5-------5-------5-------4-------4-------3-------3--------|
--------------------------------------------------------------------|

   :       .       .       .       :       .       .       .
---3---3-------3---2-------5-------3-------3-------3--3----3--3-----|
---1---------1-----1-------3-------0-------0-------0--0----0--0-----|
---2-------2-------2-------5-------2-------2-------2--2----2--2-----|
--------------------------------------------------------------------|

Part 3
   :       .       .       .       :       .       .       .
---3-----------3---3-------1-------3-------3-------4-------3--------|
---1---------1-----0---------------3----(3)--------2----------------|
---1-------1-------1---------------3--(3)----------3----------------|
--------------------------------------------------------------------|

   :       .       .       .       :       .       .       .
---3-------3-------5-------3-------3-------3-------3---3---4---6----|
---0---------------2---------------3---------------3----------------|
---1---------------3---------------3---------------3----------------|
--------------------------------------------------------------------|

   :       .       .       .       :       .       .       .
---7---7-------7---7---5---4-5---5/10--7---10--7---3---3---3-3/12---|
---5---------5-----4-----------------------------------0------------|
---5-------5-------5-----------------------------------2------------|
--------------------------------------------------------------------|

   :       .       .       .       :       .       .       .
---12--10--10--8---8---7---7---5---7---8---------10-----------------|
-----------------------------------------------7-----------2---3----|
-----------------------------------------------(8)------------------|
--------------------------------------------------------------------|

Part 4
   :       .       .       .       :       .       .       .
---7---7-------7---7---5-------5---5---5-------5---5---3-------3----|
---5---------5-----4---------4-----3---------3-----2---------2------|
---5-------5-------5-------5-------4-------4-------3-------3--------|
--------------------------------------------------------------------|

   :       .       .       .       :       .       .       .
---3---3-------3---2-----------2---0-------0-------0--0----0--0-----|
---1---------1-----1---------1-----0-------0-------0--0----0--0---5-|
---2-------2-------2-------2-------0-------0-------0--0----0--0-----|
--------------------------------------------------------------------|

Part 5
   :       .       .       .       :       .       .       .
---7---7-------7---7---5-------5---5---5-------5---5---3-------3----|
---5---------5-----4---------4-----3---------3-----2---------2------|
---5-------5-------5-------5-------4-------4-------3-------3--------|
--------------------------------------------------------------------|


   :       .       .       .       :       .       .       .
---3---3-------3---2-------5-------3---3-------3--------------3-----|
---1---------1-----1-------3-------0---------0----------0-----------|
---2-------2-------2-------5-------2-------2-------2----------------|
--------------------------------------------------------------------|
Suggest correction
Give kudos to tab author, rate the tab!
1 2 3 4 5
comments
print report bad tab
guest
You may want to rate the tab now too:
select rating
Wanna post a correction for this tab? Suggest correction