Oops, an error
Loading. Please wait.

Amargo Amor tab

by Kjantu
34 views 1 this week
no commentswrite comment
1 2 3 4 5
3 more votes to show rating
add to favorites
×
Save as Personal and add changes to this tab that will be seen only by you. Learn more ›
×
You can save this tab as Personal to edit and correct it or add notes. All changes will be seen only by you. Learn more »
launch autoscroll
font size
0
reset
how to read this tab
guitar tuner
edit
Autoscroll
slow
fast
+/-
esc
set tempo
stop
INTRO:

         MIm          SOL             DO       MIm
e -----7-12----------------------------------7---
b ----8--12--8h10-8-7------7-8h10-8-7-------8-8--
g -7-9---------------9-7-------------9---7-9---9-
d ------------------------------------10---------
a -----------------------------------------------
E -----------------------------------------------
         MIm          SOL             DO       MIm    RE       MIm
e -----7-12----------------------------------7-----7h8-7-11h12-12-
b ----8--12--8h10-8-7------7-8h10-8-7-------8-8-------------------
g -7-9---------------9-7-------------9---7-9---9------------------
d ------------------------------------10--------------------------
a ----------------------------------------------------------------
E ----------------------------------------------------------------


ESTROFA:

MIm                            SOL 
Ya no quiero ser dueño de tu amor
             DO          RE     MIm
Vete para siempre y no vuelvas más
                               SOL 
Tú dejaste en mí este gran dolor
             DO          RE        MIm
Que me tiene herido y no te quiero ver

                               SOL 
Ese amargo amor, ese amargo amor
      DO      RE     MIm
Que siento en mí por dentro
                               SOL 
Prefiero solo pensar y solo pensar
        DO    RE     MIm
Que por ti ya nada siento

CORO:

            SOL 
Ya no puedo más
        DO      RE   MIm
Me hace daño tu desamor
            SOL 
Estando lejos
        DO      MIm
Quizás tenga en paz
                RE 
A este amargo amor
                MIm
A este amargo amor
                RE 
A este amargo amor
                MIm
A este amargo amor

REPITE INTRO

REPITE ESFROFAS

REPITE CORO

SOLO:

   MIm            SOL                   DO               MIm   RE 
e -------------5-6h7-8h10-8-10-8-7--------------------------------
b ------7-7h8---------------------10-8-10h12-10-12-10-8-7-8-7-----
g -7h9-------9--------------------------------------------------9-
d ----9-----------------------------------------------------------
a ----------------------------------------------------------------
E ----------------------------------------------------------------

       MIm  RE          MIm
e ----7-----7h8-7-11h12-12-
b ---8-8-------------------
g 7-9---9------------------
d -------------------------
a -------------------------
E -------------------------

REPITE CORO

...
                RE 
A este amargo amor
                MIm
A este amargo amor

Con mucho cariño este tema para los amigos que me lo pidieron
y también para los fans de Kjantu-Perú.
Suggest correction
Creating personal tab
Creating personal tab
You can edit any tab online and save it as your Personal.

You can edit, replace or remove any tab part or add personal notes – all changes will be seen only by you.

Personal tabs can be accessed anytime from any device, even offline.
Learn more »
Give kudos to tab author, rate the tab!
1 2 3 4 5
comments
print report bad tab
guest
Wanna post a correction for this tab? Suggest correction