Oops, an error
Loading. Please wait.

Al Final tab

version 1
version 1

Whole song

109 views 1 this week
no commentswrite comment
1 2 3 4 5
3 more votes to show rating
add to favorites
×
Save as Personal and add changes to this tab that will be seen only by you. Learn more ›
×
You can save this tab as Personal to edit and correct it or add notes. All changes will be seen only by you. Learn more »
launch autoscroll
font size
0
reset
how to read this tab
guitar tuner
edit
Autoscroll
slow
fast
+/-
esc
set tempo
stop
Es mi primera trascripcion pero yo solo la transcribo el autor de esto
es mi profe de MUSICA "LUIS CARLOS CASTILLO NATTES"
les mando el punteo
pero es pa q lo saquen bn ok?

e ||------0-1-0---1--|-1-1-1-1-0------------|-------0-----0--|
B ||----3-------2----|-----------3-1--------|---------3-2----|
G ||--2--------------|---------------3-2-0--|---0-2----------|
D ||-----------------|----------------------|-2--------------|
A ||-----------------|----------------------|----------------|
E ||-----------------|----------------------|----------------|

e ||-------------|---1---0----|--5-4-5-6-5-4-5-0-3-1--|--3--|
B ||--2-1-2-3-2--|-2---2---3--|-----------------------|--3--|
G ||-------------|------------|-----------------------|--3--|
D ||-------------|------------|-----------------------|--4--|
A ||-------------|------------|-----------------------|--4--|
E ||-------------|------------|-----------------------|--3--|


REm
Ves, llegamos al final, al final de este amor
                                     SOLm
Que yo quise cuidar toda una vida entera
DO 
Todo, todo cuanto se dio, por salvar este amor
               FA         LA7
De lo poco que queda, ah, ah

REm                              MI7
El amor que al final,lograrás olvidar
               SOLm   LA7              REm
En cambio yo jamas, solo cuando yo muera
REm                              LA7
El amor que al final,lograrás olvidar
               SOLm   LA7           REm
En cambio yo jamas, solo cuando yo muera


REm                              SIb       SOLm        LA7
El intentar, el regresar son los labios que no he de besar
        SOLm      LA7                            REm
será volver a remover las cenizas del fuego del ayer.
REm                              SIb       SOLm        LA7
El intentar, el regresar son los labios que no he de besar
        SOLm      LA7                      REm
Será volver a remover las heridas dejadas ayer.


Ves, llegamos al final.......

OJO: EL RITMO ES TAQUIRARI
ESTO VA PORQ LOS RBS SEAN CONOCIDOS A NIVEL INTERNACIONAL VIVAN
LOS RBS: BURRO, SEXY, CORCHO, PRIMO, OVEJA, JHON, GUS

            
            
Suggest correction
Creating personal tab
Creating personal tab
You can edit any tab online and save it as your Personal.

You can edit, replace or remove any tab part or add personal notes – all changes will be seen only by you.

Personal tabs can be accessed anytime from any device, even offline.
Learn more »
Give kudos to tab author, rate the tab!
1 2 3 4 5
comments
print report bad tab
guest
Wanna post a correction for this tab? Suggest correction