Oops, an error
Loading. Please wait.

Al Partir tab

63 views 1 this week
no commentswrite comment
1 2 3 4 5
3 more votes to show rating
add to favorites
×
Save as Personal and add changes to this tab that will be seen only by you. Learn more ›
×
You can save this tab as Personal to edit and correct it or add notes. All changes will be seen only by you. Learn more »
launch autoscroll
font size
0
reset
how to read this tab
guitar tuner
edit
Autoscroll
slow
fast
+/-
esc
set tempo
stop
Kjarkas
Al partir (Tab)

Tema: Al Partir
Álbum: El líder de los Humildes
Letra y música: Ulises Hermosa
Ritmo: Canción
Tonalidad Original: G o SolM
Transcripción: Ariel C. Pampa Ch.

   J Si por algún motivo quieren publicar esta transcripción, favor respetar datos.

   Dedicada a los amores que se fueron, a los que no llegaron, a los que vendrán y se irán
o yo los dejaré... bueno en fin... demás vainas.

  Intro (Arpegio):
        Se toca dos veces, en la segunda se toca los acordes abajo mencionados.

e ||---------3---3--------3---3-|-------3---3--------3---3-|--------2---2--------2---2--|
B ||-------3---3--------3---3---|-----3---3--------3---3---|------3---3--------3---3----|
G ||-----4------------4---------|---4------------4---------|----2------------2----------|
D ||---5------------5-----------|-5------------5-----------|--0------------0------------|
A ||----------------------------|--------------------------|----------------------------|
E ||----------------------------|--------------------------|----------------------------|


--------2---2--------2---2-|--------3---3--------3---3-|--------0---0--------0---0-|
------4---4--------4---4---|------5---5--------5---5---|------0---0--------0---0---|
----2------------2---------|----5------------5---------|----0------------0---------|
---------------------------|---------------------------|--2------------2-----------|
--2------------2-----------|--3------------3-----------|---------------------------|
---------------------------|---------------------------|---------------------------|

                                                                                 1.|         2.||
                                                                                     C-B7-Em-G
--------0---0--------0---0-|--------0---0--------0---0-|--------2---2--------2---2-|-----------||
------1---1--------1---1---|------1---1--------1---1---|------3---3--------3---3---|-----------||
----0------------0---------|----2------------2---------|----2------------2---------|-----------||
---------------------------|---------------------------|--0------------0-----------|-----------||
--3------------3-----------|--0------------0-----------|---------------------------|-----------||
---------------------------|---------------------------|---------------------------|-----------||
                                                                                     ¦
                                                                      Estos acordes C  B7 Em G
e || -------|-----------|---------|----0---2~-|------0------|----------|-------------|--5--3-----3~--||
B || -------|-----------|----1-3~-|--3---3----|--3-3---3-1~-|-0-1-0-3~-|-------------|--------5------||
G || ----0~-|--0-2-4-0~-|--2------|-----------|-------------|----------|--2-2-0---2~-|---------------||
D || --0----|-----------|---------|-----------|-------------|----------|--------2----|---------------||
A || -------|-----------|---------|-----------|-------------|----------|-------------|---------------||
G || -------|-----------|---------|-----------|-------------|----------|-------------|---------------||


        G                         D              B7
Muchas noches en ti pienso, y recuerdo nuestro amor,
     Em                           D
tu imagen me persigue, a cada instante en mi existir.
 Am           D      G          D
Sé que marcharé muy lejos esta vez,
                   C       D           G   C-B7-Em-G
tu recuerdo en mi mente, siempre llevaré.


      G                    D                 B7
Nos amamos hace tiempo y ahora que voy a partir,
       Em                       D
son momentos de tristeza, como nunca en mi existir,
      C             D        G             D
Por qué llegaste a mí?, por qué sentirte así?,
     C              Am         D
si ahora yo me marcho, tú muy sola quedaráaaaas.
                                             ¦
                                             »»» Bajo Rápido


Coro: x2
                   »»» Arreglo                  »»» Bajo Rápido
    G           D ¦   Em         C           D ¦
   Yoooo,    te amo, no podré vivir sin tu amor.


  Solo: (En guitarra)

                   G                    D               Em                      B7         Em C G
e || ------------0-2/5-5-5-2/3-0-|--2-3-3/7-7-7-8/10-10-5-|--5-7-7/8-8-10/12-12-7-|--5-7-8-7--5-3--|
B || ------0-1-3-----------------|------------------------|-----------------------|----------------|
G || --0-2-----------------------|------------------------|-----------------------|----------------|
D || ----------------------------|------------------------|-----------------------|----------------|
A || ----------------------------|------------------------|-----------------------|----------------|
E || ----------------------------|------------------------|-----------------------|----------------|

    G                    D               Em                      C        C - B7 - Em - G
--0-2/5-5-5-2/3-0-|--2-3-3/7-7-7-8/10-10-5-|--5-7-7/8-8-10/12-12-5-|--5-3-5--||
------------------|------------------------|-----------------------|---------||
------------------|------------------------|-----------------------|---------||
------------------|------------------------|-----------------------|---------||
------------------|------------------------|-----------------------|---------||
------------------|------------------------|-----------------------|---------||

  (Hablado...)
   Para mi ya no hay sol... que la vida terminó,
   si todo lo que yo amo, en ti, en ti mi amor se quedará ...


  Nos amamos...

  Coro x2


  Para la parte final: (En zampoña)

       G         D             B7      C          G           D     C    B7 Em  G G G
e || ---------------|---------------------|----------------------|---------------------||
B || --0-1-1-1-0----|----0-1-3-3-3/5-5-1--|-0-1-3-3/4-4-5/7-7-3--|--/1~--0-------------||
G || ------------2--|--2------------------|----------------------|----------2~--0-0-0--||
D || ---------------|---------------------|----------------------|---------------------||
A || ---------------|---------------------|----------------------|---------------------||
E || ---------------|---------------------|----------------------|---------------------||


  Otros TabÂ?s....

  Bajo rápido:
        Â?       Â?       Â?       Â?       Â?
e || -----------------------------------3--||
B || -------------------1-0-0-1-3-1-0-1----||
G || ---2-0---0-2-0-0-2--------------------||
D || -------0------------------------------||
A || --------------------------------------||
E || --------------------------------------|| Los símbolos [Â?]
                                              Indican los acordes
                                              golpeados en la guitarra
                                              (para no perderse claro)
  Arreglo:

e || -----5---5-----||
B || -------7-------||
G || ---7- -----7---||
D || ---------------||
A || ---------------||
E || ---------------||

    Los símbolos utilizados... (/) significa arrastrar una nota o sea por ej
del traste 3 al 5 (3/5), el otro que aparece es (~) significa alargue de la
nota hasta que desaparezca por si misma recomiendo tocarla con mas fuerza
que la otras... ¡para que se note que la alargas pues mennn! Listo...

    A los fanáticos de los Kjarkas no les queda excusa para no sacar esta canción,
porque esta transcripción si que esta para que un niño la aprenda, así que suerte señores...

    Ah...!!! A los que me conocían bajo en e-Mail: xxxxastron_ariel@
les pido por fa que ya no escriban ahí porque esa cuenta esta deshabilitada... gracias.

    Peticiones, correcciones, consultas, comentarios, consejos, reclamos, pasiones,
chismes, desamores, intrigas, declaraciones, reconocimientos de hijos...jejeje.
etc. E-mail: astron_arielito@ o albatros_incesa@

            
            
Suggest correction
Creating personal tab
Creating personal tab
You can edit any tab online and save it as your Personal.

You can edit, replace or remove any tab part or add personal notes – all changes will be seen only by you.

Personal tabs can be accessed anytime from any device, even offline.
Learn more »
Give kudos to tab author, rate the tab!
1 2 3 4 5
comments
print report bad tab
guest
Wanna post a correction for this tab? Suggest correction