Oops, an error
Loading. Please wait.

Arbol De Mi Destino tab

version 1
version 1

Whole song

122 views 1 this week
no commentswrite comment
1 2 3 4 5
3 more votes to show rating
add to favorites
×
Save as Personal and add changes to this tab that will be seen only by you. Learn more ›
×
You can save this tab as Personal to edit and correct it or add notes. All changes will be seen only by you. Learn more »
launch autoscroll
font size
0
reset
how to read this tab
guitar tuner
edit
Autoscroll
slow
fast
+/-
esc
set tempo
stop
Kjarkas
El Árbol de mi Destino

Aquí les va una canción muy buena,
 que es muy fácil de tocar,
 en el verso solo tienen que deslizar el dedo para que les salga igual.
Ya saben dudas o sugerencias me escriben danyes_cad@

1ro Introducción (00:01)
  SOL     RE      DO         SOL     RE
======   ======   ======   ====== ======
||||||   ||||||   ||||o|   |||||| ||||||
|o||||   |||o|o   ||o|||   |o|||| |||o|o
o||||o   ||||o|   |o||||   o||||o ||||o|
||||||   ||||||   ||||||   |||||| |||||| (x2)

(Rasgueo)
| |  x | |  x | | 
| | | x | | | x | | |
| | | x | | | x | | |
   | x    | x    |

2do Verso (00:24)
      SOL
MI ---3---3-----------------3-
SI ----0------------0---0-----
SOL-----0-------------0---0---
RE ------0--------------------
LA ---------------------------
MI ---------------------------
Ayer planté un arbolito....
    RE
----2---2------------------2-
-----3-------------3---3-----
------2--------------2---2---
-------0---------------------
-----------------------------
-----------------------------
Al borde de mi destino....
       DO
-----------------------------
-------1---1---------------1-
--------0----------0---0-----
---------2-----------2---2---
----------3------------------
-----------------------------
Con el tiempo luminoso....

     SOL         RE
------------------------------------
-----------0-----------3---------3-
-------0------0----2-----2---2------
-----0---0-------0---0-----0---0----
------------------------------------
------------------------------------
Era feliz y crecía....

        SOL
MI -----3---3--------------3-
SI ------0---------0---0-----
SOL-------0----------0---0---
RE --------0-----------------
LA --------------------------
MI --------------------------
Pero un día muy oscuro....
    RE
----2---2-----------------2-
-----3------------3---3-----
------2-------------2---2---
-------0--------------------
----------------------------
----------------------------
Yo veía que sus hojas....
     DO
----------------------------
-----1---1----------------1-
------0-----------0---0-----
-------2------------2---2---
--------3-------------------
----------------------------
Doradas se marchitaban....
     SOL         RE
------------------------------------
-----------0-----------3---------3-
-------0------0----2-----2---2------
-----0---0-------0---0-----0---0----
------------------------------------
------------------------------------
Doradas se marchitaban....

3er Verso (00:50)
    LAm
--------------------------------
----------1----------------1----
--------------------------------
------2------2---------2------2-
----0---0------------0---0------
--------------------------------
Su mundo de eternos sueños....
    SI7
-----------------------------
----------0-------------0----
-----------------------------
------1------1------1------1-
----2---2---------2---2------
-----------------------------
En nada se convertía....

   LAm
---------------------------------
---------1------------------1----
---------------------------------
-----2------2-----------2------2-
---0---0--------------0---0------
---------------------------------
pasaba el tiempo muy frágil....
     SI7
-------------------------------
-----------0--------------0----
-------------------------------
-------1------1-------1------1-
-----2---2----------2---2------
-------------------------------
Las noches y las mañanas....

(La transición al coro se hace con rasgueo continuo, en Si7)

4to Coro (01:04)
SOL
No era feliz con la brisa
     RE
Que acariciaba sus hojas
  DO
Todo parecía muy triste
   SOL         RE
El árbol se me moría.

SOL
Ese arbolito querido
   RE
El que guardaba mis sueños
 DO
Ahora refleja mi vida
    SOL          RE
Son extraños los misterios.

5to Intermedio (01:30)
  SOL     RE      DO        SOL       RE
======   ======   ======   ====== ======
||||||   ||||||   ||||o|   |||||| ||||||
|o||||   |||o|o   ||o|||   |o|||| |||o|o
o||||o   ||||o|   |o||||   o||||o ||||o|
||||||   ||||||   ||||||   |||||| |||||| (x2)

6to Coro (01:53)
SOL
No era feliz con la brisa
     RE
Que acariciaba sus hojas
  DO
Todo parecía muy triste
   SOL         RE
El árbol se me moría

SOL
Ese arbolito querido
   RE
El que guardaba mis sueños
 DO
Ahora refleja mi vida
    SOL          RE
Son extraños los misterios.

7mo Intermedio (02:19)
  SOL     RE      DO          SOL     RE
======   ======   ======   ====== ======
||||||   ||||||   ||||o|   |||||| ||||||
|o||||   |||o|o   ||o|||   |o|||| |||o|o
o||||o   ||||o|   |o||||   o||||o ||||o|
||||||   ||||||   ||||||   |||||| |||||| (x2)

8vo Salida (02:42)
  SOL     RE      DO           SOL     RE
======   ======   ======   ====== ======
||||||   ||||||   ||||o|   |||||| ||||||
|o||||   |||o|o   ||o|||   |o|||| |||o|o
o||||o   ||||o|   |o||||   o||||o ||||o|
||||||   ||||||   ||||||   |||||| |||||| (x2)

Fin (03:08)

Saludo pa mis cuates, y para mi Â?colaÂ?....

            
            
Suggest correction
Creating personal tab
Creating personal tab
You can edit any tab online and save it as your Personal.

You can edit, replace or remove any tab part or add personal notes – all changes will be seen only by you.

Personal tabs can be accessed anytime from any device, even offline.
Learn more »
Give kudos to tab author, rate the tab!
1 2 3 4 5
comments
print report bad tab
guest
Wanna post a correction for this tab? Suggest correction