Oops, an error
Loading. Please wait.

Cicatrices tab

227 views 3 this week
no commentswrite comment
1 2 3 4 5
3 more votes to show rating
add to favorites
×
Save as Personal and add changes to this tab that will be seen only by you. Learn more ›
×
You can save this tab as Personal to edit and correct it or add notes. All changes will be seen only by you. Learn more »
launch autoscroll
font size
0
reset
how to read this tab
guitar tuner
edit
Autoscroll
slow
fast
+/-
esc
set tempo
stop
La canción hace que recuerde el pasado,
cuando a veces le pegaba a la vida y después la vida me pegaba a mí.

En realidad no hay más bello amanecer,
que despertarse en los brazos de la mujer que amas.

Empieza asi:

Introducción


1|------------3-3-3-3/5-2-2-0-0--|
2|-5-3-5--3------------------3---|
3|4------4-5---------------------|
4|-------------------------------|
5|-------------------------------|
6|-------------------------------|

1|-7-5-7--7-5-7--5-7-5-7-7/8-7-5-7-5-------|
2|5------5--------------------------8-7-8--|
3|-----------------------------------------|
4|-----------------------------------------|
5|-----------------------------------------|
6|-----------------------------------------|

1|-----10-12-10-12-10-12-10-12-10-12-15--------------------------10-9|
2|12-13--------------------------------12-10-12-10-12-10-12-10-12----|
3|-------------------------------------------------------------------|
4|-------------------------------------------------------------------|
5|-------------------------------------------------------------------|
6|-------------------------------------------------------------------|

1|----------7--------------------------------7----7-8-10-10/12-------|
2|7/10-10-10-8-10-8-7-7-----7-8-7-8-10-7-8-10-8-10-------------------|
3|-------------------9-9-7-9---9-------------------------------------|
4|-------------------------------------------------------------------|
5|-------------------------------------------------------------------|
6|-------------------------------------------------------------------|

1|10-12-10-12-10-12-10-12-15--------------------------10-9------|
2|--------------------------12-10-12-10-12-10-12-10-12----------|
3|--------------------------------------------------------------|
4|--------------------------------------------------------------|
5|--------------------------------------------------------------|
6|--------------------------------------------------------------|

1|----------7----------------|
2|7/10-10-10-8-10-8-7-7------|
3|-------------------9-9-7-9-|
4|---------------------------|
5|---------------------------|
6|---------------------------|


MIm                    SOL 
No sé si fue mucho pedir
                               MIm
El pretender en esta vida ser feliz
          SOL 
Hoy tengo yo las cicatrices que la vida me dejo
DO                               SOL 
En cada herida de amor hoy tengo marcas
                        LA 
Cicatrices que aun me sangran
LAm                    LAm7      MIm
Y cada herida tiene un nombre de mujer
DO                               SOL 
Con un montón de cicatrices en el alma
                 LA 
Me causaron por amarlas
LAm                       LAm7      MIm
Y en cada herida tiene un nombre de mujer


MIm                    SOL 
Que hice mal, en que falle
                                    MIm
Que  lo ideal en el amor nunca encontré
          SOL 
En qué lugar, de mi camino mi destino equivoque
DO                       SOL 
Jugué con el amor e hice trampa
                      LA 
Las engañe, fui tan infiel
LAm            LAm7          MIm
En los mil combates piel con piel
DO                              SOL 
Y aun creo en el amor y es un placer
                       LA 
Y no hay más bello amanecer
LAm               LAm7      MIm
Que en los brazos tibios de mujer?..

Se repite todo.

Saludos a mis amigos de Promoción Franz, José Luis, Omar, Galo, Ubaldo (?),
Eligio y Orlando.
Recordando aquellos momentos:
César Mamani Magne
(TodOmEsaLeMal = TodoMeMaleSal)
Rayo

Dudas, preguntas y comentarios a mi correo:
ojos_tristes_rachyr@


Arriba esas guitarras y Viva KJARKAS!!!!!!!!!!!!!!!!!!

            
            
Suggest correction
Creating personal tab
Creating personal tab
You can edit any tab online and save it as your Personal.

You can edit, replace or remove any tab part or add personal notes – all changes will be seen only by you.

Personal tabs can be accessed anytime from any device, even offline.
Learn more »
Give kudos to tab author, rate the tab!
1 2 3 4 5
comments
print report bad tab
guest
Wanna post a correction for this tab? Suggest correction