Oops, an error
Loading. Please wait.

Hombre Equivocado chords

version 2
version 2

Whole song

23 views 1 this week
no commentswrite comment
1 2 3 4 5
3 more votes to show rating
add to favorites
×
Save as Personal and add changes to this tab that will be seen only by you. Learn more ›
×
You can save this tab as Personal to edit and correct it or add notes. All changes will be seen only by you. Learn more »
launch autoscroll
font size
0
reset
transpose
0
reset
simplify chords
display chords
guitar tuner
edit
Autoscroll
slow
fast
+/-
esc
set tempo
stop
Strumming
There is no strumming pattern for this song yet. and get +5 IQ
Esta es la canción, quise hacerla lo más aproximada posible,
que sería de la siguiente forma. Las notas publicadas
ya anteriormente están bien, pero ví la necesidad
de agregar algo más para que esté completa.

e||-0-12-12-12-11-9-7-7-9-11--------------
B||---------------------------------------------
G||---------------------------------------------
D||---------------------------------------------
A||---------------------------------------------
E||---------------------------------------------


e||-0-11-11-11-9-7-5-5-7-9-
B||------------------------------
G||-----------------------------
D||----------------------------
A||-----------------------------
E||-----------------------------

e||-0-9-9-9-7-5-4-4-12-4-
B||----------------------------
G||----------------------------
D||---------------------------
A||---------------------------
E||----------------------------


e||-0-4-4-4-2-0-------------14-14-14-12-14-16-12-16-15-14-12
B||------------------4-5-9---------------------------------------
G||--------------------------------------------------------------
D||--------------------------------------------------------------
A||--------------------------------------------------------------
E||--------------------------------------------------------------

(Intro x2)


E           B7           E      |MI F#m G#m
Tengo quince años y no he vivido
A            A4            LA
en mis labios besos nunca he sentido

e||-0-5-7-0-7-8-9-8-7-5----
B||-----------------------

A       E              B7
mis ojos vieron mil madrugadas

e||--------
B||-------
G||-------
D||--------
A||--------
E||-8-7-5-3


F#m       B7*               E      |MI F#m G#m
y paso el amor sin golpear mi puerta


E        B7              E     MI F#m G#m
un día se puso el mejor vestido
A        A4               LA
y puso carmín en sus labios tiernos


e||-0-5-7-0-7-8-9-8-7-5----
B||------------------------


A         E            B7
forzó el camino de su destino


e||--------
B||-------
G||-------
D||--------
A||--------
E||-8-7-5-3


----SOLO----

e||-0-12-12-12-11-9-7-7-9-11--------------
B||---------------------------------------------
G||---------------------------------------------
D||---------------------------------------------
A||---------------------------------------------
E||---------------------------------------------


e||-0-11-11-11-9-7-5-5-7-9-
B||------------------------------
G||-----------------------------
D||----------------------------
A||-----------------------------
E||-----------------------------

e||-0-9-9-9-7-5-4-4-12-4----
B||----------------------------
G||----------------------------
D||---------------------------
A||---------------------------
E||----------------------------


e||-0-4-4-4-2-0-------------14-14-14-12-14-16-12-16-15-14-12----
B||------------------4-5-9---------------------------------------
G||--------------------------------------------------------------
D||--------------------------------------------------------------
A||--------------------------------------------------------------
E||--------------------------------------------------------------


E       B7                 E     MI F#m G#m
Un día llego el hombre equivocado
A       A4           LA
El amor fugaz de telenovela


e||-0-5-0-7-0-8-0-9-8-7-5----
B||---------------------------

A      E             B7
las mariposas con alas rotas


e||--------
B||-------
G||-------
D||--------
A||--------
E||-8-7-5-3


F#m        B7*            E      E F#m G#m
no podran volar ni tocar el cielo (bis)


E        B7              E      MI F#m G#m
y se enamoró de quien no debia
A          A4            LA
de un amor trivial y de fantasia


e||-0-5-0-7-0-8-0-9-8-7-5----
B||---------------------------

A        E                    B7
Mas a los hombres no hay que juzgarlos

e||--------
B||-------
G||-------
D||--------
A||--------
E||-8-7-5-3

F#m       B7*                  E
Por el celofan con que los envuelven (bis).


--SOLO---

E-B7-E (MI F#m G#m)(x2)

e||-0-5-7-0-7-8-9-8-7-5----
B||------------------------


e||--------
B||-------
G||-------
D||--------
A||--------
E||-8-7-5-3


E          B7             E     MI F#m G#m
Nunca vivas niña un amor temprano
A            A4              LA
No eches a perder tus mejores años
A        E                    B7
Mas a los hombres no hay que juzgarlos


e||--------
B||-------
G||-------
D||--------
A||--------
E||-8-7-5-3


F#m       B7*                  E   E F#m G#m
Por el celofan con que los envuelven
A      E             B7
Las mariposas con alas rotas


e||--------
B||-------
G||-------
D||--------
A||--------
E||-8-7-5-3


F#m             A
No podrán volar, no podrán volar
F#m         D  B7                E
No podrán volaaaaarr... ni tocar el cielo?el cielo


e||--------------------------------
B||--------------------------------
G||----------------------------------
D||---------------------------------
A||----------------------------------
E||-5-3-5-7-8-8-7-8-9-11-11-9-11-12-14


Espero que les guste, citen la fuente y/o la dirección del correo
electrónico...

Comentarios, dudas o sugerencias me escriben a mi e-mail---

p.V.A.

            
            
Suggest correction
Creating personal tab
Creating personal tab
You can edit any tab online and save it as your Personal.

You can edit, replace or remove any tab part or add personal notes – all changes will be seen only by you.

Personal tabs can be accessed anytime from any device, even offline.
Learn more »
Give kudos to tab author, rate the tab!
1 2 3 4 5
comments
print report bad tab
guest
Wanna post a correction for this tab? Suggest correction