Oops, an error
Loading. Please wait.

La Mujer Que Llego tab

version 2
version 2

Whole song

53 views 1 this week
no commentswrite comment
1 2 3 4 5
3 more votes to show rating
add to favorites
×
Save as Personal and add changes to this tab that will be seen only by you. Learn more ›
×
You can save this tab as Personal to edit and correct it or add notes. All changes will be seen only by you. Learn more »
launch autoscroll
font size
0
reset
how to read this tab
guitar tuner
edit
Autoscroll
slow
fast
+/-
esc
set tempo
stop
LA MUJER QUE LLEGO ES UNA CANCION QUE REFLEJA UN POCO
DE MI VIDA POR ESO ES QUE LA E TRANSCRITO Y SE AL DEDICO
A MI PRIMER GRAN AMOR ZAYURI Y QUIERO DECIRLE QUE A PESAR
DEL TIEMPO NUNCA LA VOY A OLVIDAR OK.
BUENO AQUI LES VA ESPERO QUE LES GUSTE......

1--12--12--11h12--11/9--9h11--9/7--7--9/11--11-9-11-I
2---------------------------------------------------I
3---------------------------------------------------I
4---------------------------------------------------I
5---------------------------------------------------I
6---------------------------------------------------I

1--11--11--9h11--9/7--7h9--7/5--5--7/9--9-7-9-------I
2---------------------------------------------------I
3---------------------------------------------------I
4---------------------------------------------------I
5---------------------------------------------------I
6---------------------------------------------------I

1--9-9-7-7------------------------------------------I
2-----------10-10-----------------------------------I
3-----------------9/5-5--9-9-7-7--------------------I
4--------------------------------9-9--8/6-6---------I
5---------------------------------------------------I
6---------------------------------------------------I

1-----------7-9-10-----I
2----7-9-10--------10--I
3--9-------------------I
4----------------------I
5----------------------I
6----------------------I

1--0-4-0---0-----------I
2--------0---0---0-----I
3--------------1---1---I
4--------------------2-I
5----------------------I
6----------------------I

1--4/12--12--11h12--11/9--9h11--9/7--7--9/11--11-9-11-I
2-----------------------------------------------------I
3-----------------------------------------------------I
4-----------------------------------------------------I
5-----------------------------------------------------I
6-----------------------------------------------------I

1--11--11--9h11--9/7--7h9--7/5--5--7/9--9-7-9-------I
2---------------------------------------------------I
3---------------------------------------------------I
4---------------------------------------------------I
5---------------------------------------------------I
6---------------------------------------------------I

1--9-9-7-7------------------------------------------I
2-----------10-10-----------------------------------I
3-----------------9/5-5--9-9-7-7--------------------I
4--------------------------------9-9--8/6-6---------I
5---------------------------------------------------I
6---------------------------------------------------I

1-----------7-9-10-----I
2----7-9-10--------10--I
3--9-------------------I
4----------------------I
5----------------------I
6----------------------I

1--0-4-0---0-----------I
2--------0---0---0-----I
3--------------1---1---I
4--------------------2-I
5----------------------I
6----------------------I

       MI   LA              MI 
Ayer no máaaaaas llego a mi vida

1--0-4-0---0-----------I
2--------0---0---0-----I
3--------------1---1---I
4--------------------2-I
5----------------------I
6----------------------I

      LA     SI7    LA       MI 
con el alma herida, cansada, vencida
                   FA#m SI7
llevaba días sin dormir
                      MI 
y un odio sordo en su ser.

1--0-4-0---0-----------I
2--------0---0---0-----I
3--------------1---1---I
4--------------------2-I
5----------------------I
6----------------------I

         MI  LA        MI 
Y yo cuidéeeeeee sus heridas

1--0-4-0---0-----------I
2--------0---0---0-----I
3--------------1---1---I
4--------------------2-I
5----------------------I
6----------------------I

        LA        SI7
y se quedó, en mi vida
 LA           MI 
curando sus heridas
                        FA#m SI7
se fue el temor de fracasar
                        MI 
volvió a la vida a sonreír.

1--0-4-0---0-----------I
2--------0---0---0-----I
3--------------1---1---I
4--------------------2-I
5----------------------I
6----------------------I

        DO#m     SOL#m
Y yo la amé, la amé
        LA        MI 
me enamoré perdidamente
                   FA#m SI7
amé su cuerpo de mujer
                       MI 
mis besos tibios en su desnudez.

1--0-4-0---0-----------I
2--------0---0---0-----I
3--------------1---1---I
4--------------------2-I
5----------------------I
6----------------------I

         DO#m     SOL#m
Y se marchó de mi vida
       LA       MI 
y me dejó sus heridas
                          FA#m SI7
yo sé que un día ha de volver
                    MI 
si me recuerda a de volver

1--0-4-0---0-----------I
2--------0---0---0-----I
3--------------1---1---I
4--------------------2-I
5----------------------I
6----------------------I

                       FA#m
tan sólo tengo que esperar
SI7         MI 
así es la vida.

1--12--12--11h12--11/9--9h11--9/7--7--9/11--11-9-11-I
2---------------------------------------------------I
3---------------------------------------------------I
4---------------------------------------------------I
5---------------------------------------------------I
6---------------------------------------------------I

1--11--11--9h11--9/7--7h9--7/5--5--7/9--9-7-9-------I
2---------------------------------------------------I
3---------------------------------------------------I
4---------------------------------------------------I
5---------------------------------------------------I
6---------------------------------------------------I

1--9-9-7-7------------------------------------------I
2-----------10-10-----------------------------------I
3-----------------9/5-5--9-9-7-7--------------------I
4--------------------------------9-9--8/6-6---------I
5---------------------------------------------------I
6---------------------------------------------------I

1-----------7-9-10-----I
2----7-9-10--------10--I
3--9-------------------I
4----------------------I
5----------------------I
6----------------------I

1--0-4-0---0-----------I
2--------0---0---0-----I
3--------------1---1---I
4--------------------2-I
5----------------------I
6----------------------I

1--4/12--12--11h12--11/9--9h11--9/7--7--9/11--11-9-11-I
2-----------------------------------------------------I
3-----------------------------------------------------I
4-----------------------------------------------------I
5-----------------------------------------------------I
6-----------------------------------------------------I

1--11--11--9h11--9/7--7h9--7/5--5--7/9--9-7-9-------I
2---------------------------------------------------I
3---------------------------------------------------I
4---------------------------------------------------I
5---------------------------------------------------I
6---------------------------------------------------I

1--9-9-7-7------------------------------------------I
2-----------10-10-----------------------------------I
3-----------------9/5-5--9-9-7-7--------------------I
4--------------------------------9-9--8/6-6---------I
5---------------------------------------------------I
6---------------------------------------------------I

1-----------7-9-10-----I
2----7-9-10--------10--I
3--9-------------------I
4----------------------I
5----------------------I
6----------------------I

1--0-4-0---0-----------I
2--------0---0---0-----I
3--------------1---1---I
4--------------------2-I
5----------------------I
6----------------------I

        DO#m     SOL#m
Y yo la amé, la amé
        LA        MI 
me enamoré perdidamente
                   FA#m SI7
amé su cuerpo de mujer
                       MI 
mis besos tibios en su desnudez.

1--0-4-0---0-----------I
2--------0---0---0-----I
3--------------1---1---I
4--------------------2-I
5----------------------I
6----------------------I

         DO#m     SOL#m
Y se marchó de mi vida
       LA       MI 
y me dejó sus heridas
                          FA#m SI7
yo sé que un día ha de volver
                    MI 
si me recuerda a de volver

1--0-4-0---0-----------I
2--------0---0---0-----I
3--------------1---1---I
4--------------------2-I
5----------------------I
6----------------------I

                       FA#m
tan sólo tengo que esperar
SI7           MI 
así es laaa vidaaaa.

Para terminar junto a la zampoña.

MI   SOL#m  DO#m  SOL#m
SOL#m  SOL#m  SOLm  FA#m  LA   SI7  MI .

SUGERENCIAS Y COMENTARIOS A MI CORREO :

TAVO-097@

            
            
Suggest correction
Creating personal tab
Creating personal tab
You can edit any tab online and save it as your Personal.

You can edit, replace or remove any tab part or add personal notes – all changes will be seen only by you.

Personal tabs can be accessed anytime from any device, even offline.
Learn more »
Give kudos to tab author, rate the tab!
1 2 3 4 5
comments
print report bad tab
guest
Wanna post a correction for this tab? Suggest correction