Oops, an error
Loading. Please wait.

Munask'echay tab

version 2
version 2

Whole song

88 views 6 this week
no commentswrite comment
1 2 3 4 5
3 more votes to show rating
add to favorites
×
Save as Personal and add changes to this tab that will be seen only by you. Learn more ›
×
You can save this tab as Personal to edit and correct it or add notes. All changes will be seen only by you. Learn more »
launch autoscroll
font size
0
reset
how to read this tab
guitar tuner
edit
Autoscroll
slow
fast
+/-
esc
set tempo
stop
**********************************************************************
* // :estas dos barras quieren decir qlas notas van ligadas         *
* /  :esta significa q se desliza                                   *
*-------------------------------------------------------------------*
* Cuando encuentren las notas entre parentesis -(0-1-0)- o -(0-2-0)-*
* q en la tab las escribi juntas,se toca la primera nota al aire se *
* asienta en la segunda nota y suelto.                              *
* Ejem.                                                             *
* E/---(020)-----                                                   *
* B/-------------                                                   *
* Toco la primera cuerda al aire piso en el segundo traste y suelto *
*********************************************************************
acordes DE Ayuda:
(para tocar solo en el puteo de la intro)


MIm (modificada)

E/--------3-------------------------------------/
B/---------------------------------------------/
G/---------------------------------------------/
D/----2----------------------------------------/
A/----2-----------------------------------------/
E/---------------------------------------------/


sol+ (modificada)
E/---------------------------------------------/
B/---------3------------------------------------/
G/---------------------------------------------/
D/--------------------------------------------/
A/---------2------------------------------------/
E/---------3------------------------------------/


re+ (modificada)
E/-----2----------------------------------------/
B/---------------------------------------------/
G/---------------------------------------------/
D/--------------------------------------------/

INTRODUCCIÓN
   MI-(mod.)      RE (mod.)     DO           SOL (mod.)
E/-3----3--2---------2---2------0-0-0-0-3-0------------/
B/-----0------------0-----------1-1-1-1------3---3--3--/
G/---0---0---------0---0--------0-0-0-0---------0-0----/
D/-2--------------0----------------------------0-------/
A/----------------------------3--------------2---------/
E/-----------------------------------------------------/

   LAm
E/----------0-----------------0-/
B/---1-1-1-1---1-(010)--------0--/
G/---2-2-2-2--------------------/
D/--------------------2//4/5----/
A/-0---------------------------/
E/---------------0--------------/
   RE 
E/---2--2-2---(020)-----0----0----12-/ si se fijan el video
B/---3--3-3----------3------0----12--/ aqui al final solo
G/-------------------------0----12---/ rosa las cuerdas no
D/-0---0-----------------------------/ las pisa y apoya el dedo
A/-----------------------------------/ sobre el traste no al medio
E/--------------------0--------------/
 MI-(mod.)      RE        DO           SOL (mod.)
E/-3----3/7--2----2/7------0-0-0-3-0--------------/
B/-----0--------3----------1-1-1-1------3---3-3-----/
G/---0---------2-----------0-0-0-0---------0--0-----/
D/-2---------0---------------------------0---------/
A/----------------------3--------------2-----------/
E/-------------------------------------------------/
   LAm
E/----------0-----------------0-/
B/---1-1-1-1---1-(010)--------0--/
G/---2-2-2-2--------------------/
D/--------------------2//4/5----/
A/-0---------------------------/
E/---------------0--------------/

RE 
E/---2-2-2-2---0---0------------------/
B/---3-3-3-3-----3--------1-0---------/
G/-----------------------------2-0-2--/
D/-0---0------------------------------/
A/------------------------------------/
E/------------------------------------/

E/---------------------------------------------/
B/---------------------------------------------/
G/---------------------------------------------/
D/--2---2-2-0/2----2-2-0/2--2-2-0/2------------/
A/--2---2-2-0/2----2-2-0/2--2-2-0/2------------/
E/------------------------------------------- -/

MIm
munasqetay
              RE
tuta punchay maskakunay
        DO              RE  MIm
tarispa suscucunay warmisitay
MIm
munasqetay
              RE
tuta punchay maskakunay
        DO               RE  MIm
tarispa suscucunay warmisitay

          SIm            LA
qanraykullayña karin viday
         DO   RE  MIm
sonqo kullay sipasitay
   SIm            LA
Qanraykullay ñakarin viday
          DO   RE  MIm
sonqo kullay sipasitay


para el solo de quena las siguientes notas:

(mi/re/do/mi/re/do/
do/re/mi/re/mi/re/mi)

MIm
mi buen amor
              RE
mi herida de amor mi verdad
             DO
mi credo razon de vivir
               MIm
mi lluvia de abril
MIm
mi buen amor
               RE
mi herida de amor mi verdad
             DO
mi credo razon de vivir
              MIm
mi lluvia de abril

SIm           LA
gracias a ti mi triste vivir
          DO          MIm
pudo cambiar en un jardin

  SIm           LA
gracias a ti mi triste vivir
          DO         MI
pudo cambiar en un jardin

mi/re/do/mi

esta es para mi hermano Charly de Orán quien
me la pidió que se la saque la cancion
aguante Bermejo

            
            
Suggest correction
Creating personal tab
Creating personal tab
You can edit any tab online and save it as your Personal.

You can edit, replace or remove any tab part or add personal notes – all changes will be seen only by you.

Personal tabs can be accessed anytime from any device, even offline.
Learn more »
Give kudos to tab author, rate the tab!
1 2 3 4 5
comments
print report bad tab
guest
Wanna post a correction for this tab? Suggest correction