Oops, an error
Loading. Please wait.

Munasqetay tab

46 views 1 this week
no commentswrite comment
1 2 3 4 5
3 more votes to show rating
add to favorites
×
Save as Personal and add changes to this tab that will be seen only by you. Learn more ›
×
You can save this tab as Personal to edit and correct it or add notes. All changes will be seen only by you. Learn more »
launch autoscroll
font size
0
reset
how to read this tab
guitar tuner
edit
Autoscroll
slow
fast
+/-
esc
set tempo
stop
HOLA.... aquí les va lo ultimo de los kjarkas.
Mando saludos a mis cumpas de la UMSS de audi,
cualquier duda o sugerencia escríbanme a mi correo
?edmenn@

E/-3----3----2----2------0-0-0-0-3-0-------------/
B/-----0---0-----0---0---1-1-1-1------3---3-3---3/
G/---0---0-----2---2-----0-0-0-0--------3-----3--/
D/-2---------0-----------------------------------/
A/---------------------3--------------2----------/
E/-----------------------------------------------/

E/------------1----------------0---2---2-2--0/1/0---0/
B/---1--1-1-1--2-0/1/0--------0-------------------3--/
G/---0--0-0-0---------------0--------2---------------/
D/----------------------2/4------0-------------------/
A/---------------------------------------------------/
E/-0---0---------0-----------------------------------/

E/------0--------12/
B/----0-------12---/
G/--0------12------/
D/-----------------/
A/-----------------/
E/-----------------/

E/-3----3/7--1---1-1/7----0-0-0-0-3-0-------------/
B/-----0-------3----------1-1-1-1------3---3-3---3/
G/---0--------------------0-0-0-0--------3-----3--/
D/-2---------0------------------------------------/
A/----------------------3--------------2----------/
E/------------------------------------------------/

E/------------1----------------0---2---2-2--0/1/0---0/
B/---1--1-1-1--2-0/1/0--------0-------------------3--/
G/---0--0-0-0---------------0--------2---------------/
D/----------------------2/4------0-------------------/
A/---------------------------------------------------/
E/-0---0---------0-----------------------------------/

E/-0/1/0---------------------/
B/-------3-0-----------------/
G/----------2-0/2------------/
D/----------------2-2-2-0/2-2/
A/----------------2-2-2-0/2-2/
E/-0-------------------------/

Em-D-C-G-C-G-D-Em
Em-D-C-D-Em
Em
munasqetay
              D
tuta punchay maskakunay
        C                  Em
tarispa suscucunay warmisitay
Em
munasqetay
              D
tuta punchay maskakunay
        C                  Em
tarispa suscucunay warmisitay

          Bm            A
qanraykullayña karin viday
         C          Em
sonqo kullay sipasitay
   Bm            A
Qanraykullay ñakarin viday
         C          Em
sonqo kullay sipasitay

Em-D-A-Em-D-A
C-G-Bm-Em-D-Em

Em
mi buen amor
               D
mi herida de amor mi verdad
             C
mi credo razon de vivir
               Em
mi lluvia de abril
Em
mi buen amor
               D
mi herida de amor mi verdad
             C
mi credo razon de vivir
               Em
mi lluvia de abril

Bm           A
gracias a ti mi triste vivir
          C          Em
pudo cambiar en un jardin

  Bm           A
gracias a ti mi triste vivir
          C          Em
pudo cambiar en un jardin
Em-D-C-D-Em

            
            
Suggest correction
Creating personal tab
Creating personal tab
You can edit any tab online and save it as your Personal.

You can edit, replace or remove any tab part or add personal notes – all changes will be seen only by you.

Personal tabs can be accessed anytime from any device, even offline.
Learn more »
Give kudos to tab author, rate the tab!
1 2 3 4 5
comments
print report bad tab
guest
Wanna post a correction for this tab? Suggest correction