Oops, an error
Loading. Please wait.

Munasquetay tab

71 views 1 this week
no commentswrite comment
1 2 3 4 5
3 more votes to show rating
add to favorites
×
Save as Personal and add changes to this tab that will be seen only by you. Learn more ›
×
You can save this tab as Personal to edit and correct it or add notes. All changes will be seen only by you. Learn more »
launch autoscroll
font size
0
reset
how to read this tab
guitar tuner
edit
Autoscroll
slow
fast
+/-
esc
set tempo
stop
 --3-------3--------2------2---------0-0-0--0-3-0-------------------
 ----0-------0--------3------3-------1-1-1--1-1-1---3-3-3--3-3-3----
 ------0-------0--------2------2--------------------0-0-0--0-0-0----
 -------------------------------------------------------------------
 --2----------------0-------------3---------------------------------
 -------------------------------------------------------------------


 ---------------0-------------0-2-2-2-2-2-0---0-----0-----12--------
 -----1----1-1----1-0-----------------------3-----0-----9-----------
 -----0----0-0--------------0-------------------0-----9-------------
 ----------------------2-4------------------------------------------
 --3-----3----------------------------------------------------------
 -------------------------------------------------------------------


 --3-3-3-7--2-2-2-7--0-0-0-0-0-3-0-------------------------0--------
 ----------------------------------3-3-3--3-3-3--1-1-1-1-1---1-1-0--
 -------------------------------------------------------------------
 -------------------------------------------------------------------
 -------------------------------------------------------------------
 -------------------------------------------------------------------


 -------------0-2-2-2-2-2-0---0--------------------------------------
 ---------------------------3----1-0---------------------------------
 -------0----------------------------2-0-2---------------------------
 --2-4-------------------------------------2-2-2--2-2-2--2-2-2-2-2-2-
 --------------------------------------------------------2-2-2-2-2-2-
 --------------------------------------------------------------------


  (EN ESTE COMIENSO LOS ACORDES SON Em,D,C,D,Em)


 Em                        D
 MUNASQUETAY TUTA PUNCHAIMASCACUNAY
           C        D      Em
 TARIS PASUSCUCUNAY UARMISITAY
 Em                        D
 MUNASQUETAY TUTA PUNCHAYMASCACUNAY
           C       D      Em
 TARIS PASUSCUCUNAY UARMISITAY

      Bm              A
 ANAYCULLA ÑAINCARIN VITA
  Am        D     Em
 SOCO CULLA SINMASITA
      Bm              A
 ANAYCULLA ÑAINCARIN VITA
  Am       D      Em
 SOCO CULLA SINMASITA


(ESTA PARTE DE ZAMPOÑA ES CON LOS MISMOS ACORDES ,Em,D,C,D,Em)

 Em                         D
 MI BUEN AMOR MI ERIDA DE AMOR

 MI VERDAD
           C
 MI CREDO RAZON DE VIVIR
      D         Em
 MI LLUVIA DE ABRIL

 Em                         D
 MI BUEN AMOR MI ERIDA DE AMOR

 MI VERDAD
           C
 MI CREDO RAZON DE VIVIR
      D         Em
 MI LLUVIA DE ABRIL

           Bm            A
 GRACIAS A TI MI TRISTE VIVIR
         Am   D        Em
 PUDO CAMBIAR EN UN JARDIN

           Bm             A
 GRACIAS A TI MI TRISTE VIVIR

         Am   D        Em
 PUDO CAMBIAR EN UN JARDIN


 (ESTE FINAL SE VUELVE A REPETIR LOS MISMOS ACORDES)


 HOLA ME LLAMO KEVIN RANDY Y ESTUDIO EN LA U.E HOLANDA
 ESPERO QUE LES GUSTE EL TEMA AUNQUE MI QUECHUA NO SEA MUY BUENO
 PERO ESA ES LA IDEA DE LA PRONUNSIACION,BUENO CUAQUIER PREGUNTA
 O DUDA ME ESCRIBEN A MI CORREO ELECTRONICO
 THE-POWER-BOLIVAR@
Suggest correction
Creating personal tab
Creating personal tab
You can edit any tab online and save it as your Personal.

You can edit, replace or remove any tab part or add personal notes – all changes will be seen only by you.

Personal tabs can be accessed anytime from any device, even offline.
Learn more »
Give kudos to tab author, rate the tab!
1 2 3 4 5
comments
print report bad tab
guest
Wanna post a correction for this tab? Suggest correction