Oops, an error
Loading. Please wait.

Palomita tab

31 views 1 this week
no commentswrite comment
1 2 3 4 5
3 more votes to show rating
add to favorites
×
Save as Personal and add changes to this tab that will be seen only by you. Learn more ›
×
You can save this tab as Personal to edit and correct it or add notes. All changes will be seen only by you. Learn more »
launch autoscroll
font size
0
reset
how to read this tab
guitar tuner
edit
Autoscroll
slow
fast
+/-
esc
set tempo
stop
INTRO:
e. -5-7-8-8-7-8-7-5-3-3-3h5p3-3---3-3h5p3-3---|
B. -6-8-8---------6-5-5---------5-5---------5-|
G. -------------------------------------------|
D. -------------------------------------------|
A. -------------------------------------------|
E. -------------------------------------------|

e. -5-7-8-8-7-8-7-5-3-3-3h5p3-3-----------|---------------|
B. -6-8-8---------6-5-5---------5-5-5-3---|---------------|
G. -------------------------------------5-|---------------|
D. ---------------------------------------|-0-----2-------|
A. ---------------------------------------|---2-3---2---0-|
E. ---------------------------------------|-----------3---|

   Palomita mayna TAtaj puris janki
e. ---------|---------------------|-------------------------------|
B. ---------|---------------------|-------------------------------|
G. ---------|---------------------|-------------------------------|
D. -3-2-0---|-3-2-0---2-0---------|-0-2-3-2-3-2-0---2-0-----------|
A. -------3-|-------3-----3-3-2-0-|---------------3-----2-3-3-2-0-|
E. ---------|---------------------|-------------------------------|

   Palomita mayna TAtaj puris janki
e. ---------|-------------------------|-----------------------------|
B. ---------|-------------------------|-----------------------------|
G. ---------|-------------------------|-----------------------------|
D. -3-2-0---|-0-2-3-2-0---2-0---------|-0-2-3-2-3-0-----2-0---------|
A. -------3-|-----------3-----3-3-2-0-|-------------2-3-----3-3-2-0-|
E. ---------|-------------------------|-----------------------------|

   Noga TAtaj, sabewanki
e. -------------------------|-------------------|
B. -----1-----1-----3-----3-|-------------------|
G. ---2-----2-----2-----2---|-------------------|
D. -3-----3-----0-----0-----|-3-2-3-2-0-----0---|
A. -------------------------|-----------3-----3-|
E. -------------------------|-------------------|

e. -----------------------------|-----------------------------|
B. -----------------------------|-----------------------------|
G. -----------------------------|-----------------------------|
D. -0-2-3-2-3-2-0---2-0---------|-0-2-3-2-3-2-0---2-0---------|
A. ---------------3-----3-3-2-0-|---------------3-----3-3-2-0-|
E. -----------------------------|-----------------------------|

                |-lalalala--|
e. -------------|-----------|
B. -------------|-----------|
G. -2-1-2-------|-----------|
D. -------2-----|-----------|
A. ---------3-0-|-3-2-0-----|
E. -------------|-------1-3-|

                          |     Mana chay songoy        |
   Laralaira laralaira    |jinala chicamuyway jusganhaypu|
e. -----------------------|-----------------------------|
B. -----------------------|-----------------------------|
G. -----------------------|-----------------------------|
D. -3-2-0---2-0-----------|-0-2-3-2-3-2-0---2-0---------|
A. -------3-----3-3-2---0-|---------------3-----3-3-2-0-|
E. -------------------3---|-----------------------------|


e. -5-7-8-8-7-8-7-5-3-3-3h5p3-3---3-3h5p3-3---|
B. -6-8-8---------6-5-5---------5-5---------5-|
G. -------------------------------------------|
D. -------------------------------------------|
A. -------------------------------------------|
E. -------------------------------------------|

e. -5-7-8-8-7-8-7-5-3-3-3h5p3-3-----------|-------------|
B. -6-8-8---------6-5-5---------5-5-5-3---|-------------|
G. -------------------------------------5-|-------------|
D. ---------------------------------------|-0-----------|
A. ---------------------------------------|---2-3-3-2-0-|
E. ---------------------------------------|-------------|

PalomiTA mayna tataj puris janki
e. -------|-------------|-------------------------|
B. -------|-------------|-------------------------|
G. -------|-------------|-------------------------|
D. -------|-0-2-3-2-0---|-0-2-3-2-0---2-0---------|
A. -------|-----------3-|-----------3-----3-3-2-0-|
E. -0-1-3-|-------------|-------------------------|

e. -----------------------------|
B. -----------------------------|
G. -----------------------------|
D. -0-2-3-2-3-2-0---2-0---------|
A. ---------------3-----3-3-2-0-|
E. -----------------------------|

   Palomita-|
e. ---------|
B. ---------|
G. ---------|
D. ---------|
A. -3-2-----|
E. -----1-3-|

   mayna tataj puris janki
   MAna chay puris jaykipi
e. -------------------------|-----------------------------|
B. -------------------------|-----------------------------|
G. -------------------------|-----------------------------|
D. -0-2-3-2-0---2-0---------|-0-2-3-2-3-0-----2-0---------|
A. -----------3-----3-3-2-0-|-------------2-3-----3-3-2-0-|
E. -------------------------|-----------------------------|

   Noga TAtaj, sabewanki
e. -------------------------|-------------------|
B. -----1-----1-----3-----3-|-------------------|
G. ---2-----2-----2-----2---|-------------------|
D. -3-----3-----0-----0-----|-3-2-3-2-0---2-0---|
A. -------------------------|-----------3-----3-|
E. -------------------------|-------------------|

e. -----------------------------|-----------------------------|
B. -----------------------------|-----------------------------|
G. -----------------------------|-----------------------------|
D. -0-2-3-2-3-2-0---2-0---------|-0-2-3-2-3-2-0---2-0---------|
A. ---------------3-----3-3-2-0-|---------------3-----3-3-2-0-|
E. -----------------------------|-----------------------------|

   -Lalalaira-|
e. -----------|-------------|-----------------------------|
B. -----------|-------------|-----------------------------|
G. -----------|-------------|-----------------------------|
D. -----------|-3-2-3-2-0---|-0-2-3-2-3-2-0---2-0---------|
A. -3-2-0-----|-----------3-|---------------3-----3-3-2-0-|
E. -------1-3-|-------------|-----------------------------|

    Mana chay songoy              |
    jinala chicamuyway jusganhaypu|
e. -------------------------------|
B. -------------------------------|
G. -------------------------------|
D. -0-2-3-2-3-0-----2-0-----------|
A. -------------2-3-----2-3-3-2-0-|
E. -------------------------------|

*comenzar a puntear cada vez que se vea la sílaba con MAYÚSCULAS
en alguna de las palabras (el punteo está al pie de las palabras)

Alguna sugerencia o comentario al meil: lirodiba85@
Suggest correction
Creating personal tab
Creating personal tab
You can edit any tab online and save it as your Personal.

You can edit, replace or remove any tab part or add personal notes – all changes will be seen only by you.

Personal tabs can be accessed anytime from any device, even offline.
Learn more »
Give kudos to tab author, rate the tab!
1 2 3 4 5
comments
print report bad tab
guest
Wanna post a correction for this tab? Suggest correction