Oops, an error
Loading. Please wait.

Saya De Amor tab

32 views 1 this week
no commentswrite comment
1 2 3 4 5
3 more votes to show rating
add to favorites
×
Save as Personal and add changes to this tab that will be seen only by you. Learn more ›
×
You can save this tab as Personal to edit and correct it or add notes. All changes will be seen only by you. Learn more »
launch autoscroll
font size
0
reset
how to read this tab
guitar tuner
edit
Autoscroll
slow
fast
+/-
esc
set tempo
stop
Que tal amigos , aquí EDUARDO EULOGIO
enviando una de los Kjarkas, es un tema que me gusto
mucho en sus momento , lo busque y no lo encontré
y decidí sacarlo en Dm, bueno a mi me suena bien
si alguien lo puede mejorar a buena hora,
 saludos a la gentita del CIDUMS, CAPELLANIA,
 LA FIEE BASE 2001.
HABLA JHONNY YA EH MEJORADO JE.

SAYA DE AMOR

1---0-3-3-3-2-0-3-0---0-5-3-2-0------------------------
2-------------------------------3-0--------------------
3------------------------------------------------------

1---0-3-3-3-3-2-0-3-0---0-5-3-2-0----------------------
2---------------------------------3-0------------------
3------------------------------------------------------

1---3-0-3-3-5-----------5-3-2-0------------------------
2-------------3-0-3-3-5----------3-0-------------------
3------------------------------------------------------

1---3-0-3-3-5-----------5-3-2-0------------------------
2-------------3-0-3-3-5----------3-5-------------------
3------------------------------------------------------

Dm               Bb
Al recordar los amores
     Gm               C
que ayer vivimos los dos
Dm                   Bb
te busque por todas partes
     Gm                C
no halle ni un poco de ti

coro
Dm               G
tus lindos ojos, tu piel tu boca
Bb      C         F
donde, donde andarán
Dm               G
tus lindos ojos, tu piel tu boca
Bb      C         Dm
donde, donde andarán

Dm                 Bb
Donde quedaron los sueños
     Gm               C
A quien entregas tu amor
Dm                 Bb
Quien gozara de tu besos
   Gm                  C
A quien diras que amas hoy

Dm               G
tus lindos ojos, tu piel tu boca
Bb      C         F
donde, donde andarán
Dm               G
tus lindos ojos, tu piel tu boca
Bb      C         Dm
donde, donde andarán


Dm        Bb
Saya de amor
       C             F
Donde andará su corazón
Dm        Bb
Quiero su amor
     C            Dm
Yo necesito su calor

PD: NO SE TU NOMBRE,
    SOLO ME GRABE TU MIRADA Y HASTA ESO LO PERDI.

?TU SILENCIO ES MI TORTUTA,
 AMOR VUELVE A MI
 SE QUE AMARTE FUE LOCURA
 NO PUEDO VIVIR?
      JOSE JOSE

Edueu21@

            
            
Suggest correction
Creating personal tab
Creating personal tab
You can edit any tab online and save it as your Personal.

You can edit, replace or remove any tab part or add personal notes – all changes will be seen only by you.

Personal tabs can be accessed anytime from any device, even offline.
Learn more »
Give kudos to tab author, rate the tab!
1 2 3 4 5
comments
print report bad tab
guest
Wanna post a correction for this tab? Suggest correction