Oops, an error
Loading. Please wait.

Tiempo Al Tiempo tab

104 views 1 this week
1 commentread comment
1 2 3 4 5
3 more votes to show rating
add to favorites
×
Save as Personal and add changes to this tab that will be seen only by you. Learn more ›
×
You can save this tab as Personal to edit and correct it or add notes. All changes will be seen only by you. Learn more »
launch autoscroll
font size
0
reset
how to read this tab
guitar tuner
edit
Autoscroll
slow
fast
+/-
esc
set tempo
stop
Este es el Intro de la Canción en el CHARANGO

para tocarla igual se necesita conocer técnicas de punteado en el charango
a si que a echarle práctica....saludos desde Quito-Ecuador
cualquier duda pueden escribir a mi correo..estuardo247@


LA TECNICA  h(hammer)
EJEMPLO: Para tocar esto procederemos de la siguiente manera:

E:*|----------
A:*|----0h2---
E:*|----------
C:*|----------
G:*|----------

Estamos en la 2ª cuerda (LA) , y la tocamos al aire Manteniendo el
sonido de esta nota, de forma rápida ponemos el dedo medio o indice
en el traste 2(SI) ,sin tocar la nota (SI) con la mano derecha de
este modo la nota (SI) sonorá unicamente con la vibración de la
nota inicial (LA).

mano izquierda
I=indice
M=medio
K=meñique

I

E:*|-3--2--0----------------------------------------------0------------
A:*|-2--------2-----2--------0h2----2----2------0h2----2-----2--0------
E:*|-----------------------------------------------------------------0-  x2
C:*|----------------------2------2-----2---2--------2------------------
G:*|-0-----------0-----0------------------------------------------0----


esta primera parte se repite ...luego

                                                         I M K M I
e:*|-7--5--3--0--3--0---2--------2h0-----2h0---5---------2---5---2-----
A:*|------------------------0----------------------0-------------------
E:*|-------------------------------------------------------3---3---0---
C:*|----------------------2---2------2-------2---0---0-----------------
G:*|-4-----------------------------------------------------------------


e:*|-2---2---------------------------
A:*|------------2-----2-----2-----2--
E:*|---3---0-------------------------
C:*|---------------------0-----0-----
G:*|---------------0-----------------

se..repite ...

e:*|-7--5--3--0--3--0---2--------2/0-----2/0---5---------2---5---2-----
A:*|------------------------0----------------------0-------------------
E:*|-------------------------------------------------------3---3---0---
C:*|----------------------2---2------2-------2---0---0-----------------
G:*|-4-----------------------------------------------------------------


e:*|-2---2--------------------------0----------------------0--
A:*|---------------0-----0---2---2--------0-----0---2----2----
E:*|---3---0-----1----------------------1---------------------
C:*|------------------0----------------------0----------------
G:*|---------------------------0----------------------0-------
Suggest correction
Creating personal tab
Creating personal tab
You can edit any tab online and save it as your Personal.

You can edit, replace or remove any tab part or add personal notes – all changes will be seen only by you.

Personal tabs can be accessed anytime from any device, even offline.
Learn more »
Give kudos to tab author, rate the tab!
1 2 3 4 5
comments
print report bad tab
1 comment total.
0 reply
jag666 84 Dec 19, 2015 04:33 AM

la tablatura esta al reves!!!!!

guest
Wanna post a correction for this tab? Suggest correction