Oops, an error
Loading. Please wait.

Daan bass

version 1
version 1

Whole song

by Kjwan
194 views 3 this week
no commentswrite comment
1 2 3 4 5
3 more votes to show rating
add to favorites
×
Save as Personal and add changes to this tab that will be seen only by you. Learn more ›
×
You can save this tab as Personal to edit and correct it or add notes. All changes will be seen only by you. Learn more »
launch autoscroll
font size
0
reset
guitar tuner
edit
Autoscroll
slow
fast
+/-
esc
set tempo
stop
Author
Daan Bass Tab by Kjwan
Tab by: Ian Bernard Gilay -> fritzoy

Bass Tab

Hello guys! Hello Ultimate-Guitar.com! staffs! and to the one whose
reading this tab. I have here the Daan Bass Tab by Kjwan from their 2nd album
2 step marv. hmmm its 90% accurate. i dont have the lead slide in
chorus part its just simple, just do it urself..=) coz im so tired
listening and writing and tabbing, seprah or what u call it..well
hope u like it guys..and dont 4get to rate..thnx..luv u all!!

Intro: repeat 2x

         G|------------------------------------|
         D|------------------------------------|
         A|------------------------------------|
         E|-0-0-0-0-0-0-0-0---0-0-0-0-0-0-0-0--|

G|----------------------------------------------------|
D|----------------------------------------------------|
A|----------------------------------------------------|
E|-2-2-2-2-2-2-2-2--1-1-1-1-1-1--0-0-0-0--2-2-2-2--0--|

Verse 1: 2x

G|-------------------------------|
D|-------------------------------|
A|--4-4h6---4-4h6--4-4h6--4-4h6--|
E|-4-------4------4------4-------|

G|----------------------------------------------------|
D|----------------------------------------------------|
A|----------------------------------------------------|
E|-2-2-2-2-2-2-2-2--1-1-1-1-1-1--0-0-0-0--2-2-2-2-----|


Chorus: 2x

G|--------------------------------------------|
D|--------------------------------------------|
A|--------------------------------------------|
E|-6-6-6-6-6-8-8-8-8-8--9-9-9-9-9--6-6-6-6-6--|

G|----------------------------------------|
D|----------------------------------------|
A|----------------------------------------|
E|-2-2-2-2-2-2-2-2--1-1-1-1-1-1--2-2-2-2--|

or

G|------------------------------------------|
D|------------------------------------------|
A|-1-1-1-1-1-3-3-3-3-3-4-4-4-4-4-1-1-1-1-1--|
E|------------------------------------------|

G|----------------------------------------|
D|----------------------------------------|
A|----------------------------------------|
E|-2-2-2-2-2-2-2-2--1-1-1-1-1-1--2-2-2-2--|

Repeat Intro (once only)

Verse 2:
Same as Verse 1

Rpeat Chorus

Solo:

G|----------------------------------| just play this
D|----------------------------------| for many times
A|------4-6-4-6-4---4-6-4-6-4-------| until where it
E|-10/2-----------0-----------6-0---| stops

Chorus
1st:(first play)
There are just some few changes

G|------------------------------------------|
D|------------------------------------------|
A|------------------------------------------|
E|-6-6-6-6-6-8-8-8-8-8--9-9-9-9-9--9-8-6-1--|

G|----------------------------------------|
D|----------------------------------------|
A|----------------------------------------|
E|-2-2-2-2-2-2-2-2--1-1-1-1-1-1--2-2-2-2--|

or

G|---------------------------------------|
D|---------------------------------------|
A|-1-1-1-1-1-3-3-3-3-3-4-4-4-4-4--4-3-1--|
E|---------------------------------------|

G|----------------------------------------|
D|----------------------------------------|
A|----------------------------------------|
E|-2-2-2-2-2-2-2-2--1-1-1-1-1-1--2-2-2-2--|

2nd:(second repeat)
There is a pause part

G|------------------------------------------|
D|------------------------------------------|
A|------------------------------------------|
E|-6-6-6-6-6-8-8-8-8-8--9-9-9-9-9--6-pause--|

G|------------------------------------------|
D|------------------------------------------|
A|------------------------------------------|
E|-1-2-2-2-2-2-2-2-2--1-1-1-1-1-1--2-2-2-2--|

or

G|----------------------------------------|
D|----------------------------------------|
A|-1-1-1-1-1-3-3-3-3-3-4-4-4-4-4-1-pause--|
E|----------------------------------------|

G|------------------------------------------|
D|------------------------------------------|
A|------------------------------------------|
E|-1-2-2-2-2-2-2-2-2--1-1-1-1-1-1--2-2-2-2--|

Ending:

G|-----------------------------------------------|
D|-----------------------------------------------|
A|-----------------------------------------------|
E|-0-0-0-0-0-0-0-0-pause--0-0-0-0-0-0-0-0-pause--|

G|------------------------------------------------|
D|------------------------------------------------|
A|------------------------------------------------|
E|-0-0-0-0-0-0-0-0-pause--0-0-0-0-0-0---0-0--0-0--|

-end-

well thats all folks..=)
keep em r0cking!!
Keep on rocking!!

and hello to my band shakewell

sha>|ewe||:
Rythym/Lead and Vocals - (me)
Rythym and backup vocals/2nd vocals - (jade abrea)
Bass - (james abadies)
Drums - (jon solon)

hello to my baby cindy...take care always..
love you always and forever..=)

Thank you www.ultimate-guitar.com..
Thank you guys..
Thank you..

            
            
Suggest correction
Creating personal tab
Creating personal tab
You can edit any tab online and save it as your Personal.

You can edit, replace or remove any tab part or add personal notes – all changes will be seen only by you.

Personal tabs can be accessed anytime from any device, even offline.
Learn more »
Give kudos to tab author, rate the tab!
1 2 3 4 5
comments
print report bad tab
guest
You may want to rate the tab now too:
select rating
Wanna post a correction for this tab? Suggest correction