Oops, an error
Loading. Please wait.

One Look tab

version 1
version 1

Whole song

by Kjwan
8,695 views 30 this week
3 commentsread comments
1 2 3 4 5
x 3
add to favorites
×
Save as Personal and add changes to this tab that will be seen only by you. Learn more ›
×
You can save this tab as Personal to edit and correct it or add notes. All changes will be seen only by you. Learn more »
launch autoscroll
font size
0
reset
how to read this tab
guitar tuner
edit
Autoscroll
slow
fast
+/-
esc
set tempo
stop
Author
One Look Tab by Kjwan
Album: 2 Step Marv
Tab by: Ian Bernard Gilay -> fritzoy

Hello guys!! Hello www.ultimate-guitar!!
This song One Look is from their new release album of kjwan, titled 2 step marv. It is a 
song and a nice album and it really rock you on.. well its 90% accurate.. paki rate lng 
shakewell_band@yahoo.com..iansfab@yahoo.com..

Legend:
b = bend
h = hammer on
p = pull off
Vp = up strumming with pause

Intro:
e|--------------11-9-7-7h9-7-11-11-9-9-7-7h9p7-|
B|----5-5-7-7-9-------------9-----------9------|
G|-5h7-7---------------------------------------|
D|---------------------------------------------|
A|---------------------------------------------|
E|---------------------------------------------|

e|--------------11-9-7-7h9-7-11-11-9-9-7-9b----|
B|----5-5-7-7-9-------------9-----------9------|
G|-5h7-7---------------------------------------|
D|---------------------------------------------|
A|---------------------------------------------|
E|---------------------------------------------|

Verse 1:
e|-4-------------2-------------4-------------2--------|
B|-4--4----------2--2----------4--4----------2--2-----|
G|-5----5--------3----3--------5----5--------3----3---|
D|-6------6------4------4------6------6------4------4-|
A|-6-------------4-------------6-------------4--------|
E|-4-------------2-------------4-------------2--------|

e|-4-------------2-------------4-------------2--------|
B|-4--4----------2--2----------4--4----------2--------|
G|-5----5--------3----3--------5----5--------3--------|
D|-6------6------4------4------6------6------4--------|
A|-6-------------4-------------6-------------4--------|
E|-4-------------2-------------4-------------2--------|

Chorus:
One look..
           VpVp    VpVp    VpVp    VpVp
        e|-4-4-----4-4-----2-2-----2-2-|
        B|-4-4-----4-4-----2-2-----2-2-|
        G|-5-5-----5-5-----3-3-----3-3-|
        D|-6-6-----6-6-----4-4-----4-4-|
        A|-6-6-----6-6-----4-4-----4-4-|
        E|-4-4-----4-4-----2-2-----2-2-|
Blowing down..
e|-4-----------------------2--2----|
B|-4----4------------------2---2---|
G|-5---5-------------------3-3--3--|
D|-6--6--------------------4-----4-|
A|-6-6---------------------4-------|
E|-4-----------------------2-------|

And its a mystery...(light strumming)
          e|-4-4-4-4-4-4-4-4--2-2-2-2-2-2-2-2-|
          B|-4-4-4-4-4-4-4-4--2-2-2-2-2-2-2-2-|
          G|-5-5-5-5-5-5-5-5--3-3-3-3-3-3-3-3-|
          D|-6-6-6-6-6-6-6-6--4-4-4-4-4-4-4-4-|
          A|-6-6-6-6-6-6-6-6--4-4-4-4-4-4-4-4-|
          E|-4-4-4-4-4-4-4-4--2-2-2-2-2-2-2-2-|

e|-4-------------2--------|
B|-4--4----------2--2-----|
G|-5----5--------3----3---|
D|-6------6------4------4-|
A|-6-------------4--------|
E|-4-------------2--------|

Repeat Intro:
e|--------------11-9-7-7h9-7-11-11-9-9-7-7h9p7-|
B|----5-5-7-7-9-------------9-----------9------|
G|-5h7-7---------------------------------------|
D|---------------------------------------------|
A|---------------------------------------------|
E|---------------------------------------------|

e|--------------11-9-7-7h9-7-11-11-9-9-7-9b----|
B|----5-5-7-7-9-------------9-----------9------|
G|-5h7-7---------------------------------------|
D|---------------------------------------------|
A|---------------------------------------------|
E|---------------------------------------------|

Verse 2:
e|-4-------------2-------------4-------------2--------|
B|-4--4----------2--2----------4--4----------2--------|
G|-5----5--------3----3--------5----5--------3--------|
D|-6------6------4------4------6------6------4--------|
A|-6-------------4-------------6-------------4--------|
E|-4-------------2-------------4-------------2--------|

e|-4-------------2-------------4-------------2--------|
B|-4--4----------2--2----------4--4----------2--------|
G|-5----5--------3----3--------5----5--------3--------|
D|-6------6------4------4------6------6------4--------|
A|-6-------------4-------------6-------------4--------|
E|-4-------------2-------------4-------------2--------|

Repeat Chorus:
One look..
           VpVp    VpVp    VpVp    VpVp
        e|-4-4-----4-4-----2-2-----2-2-|
        B|-4-4-----4-4-----2-2-----2-2-|
        G|-5-5-----5-5-----3-3-----3-3-|
        D|-6-6-----6-6-----4-4-----4-4-|
        A|-6-6-----6-6-----4-4-----4-4-|
        E|-4-4-----4-4-----2-2-----2-2-|
Blowing down..
e|-4-----------------------2--2----|
B|-4----4------------------2---2---|
G|-5---5-------------------3-3--3--|
D|-6--6--------------------4-----4-|
A|-6-6---------------------4-------|
E|-4-----------------------2-------|

And its a mystery...(light strumming)
          e|-4-4-4-4-4-4-4-4--2-2-2-2-2-2-2-2-|
          B|-4-4-4-4-4-4-4-4--2-2-2-2-2-2-2-2-|
          G|-5-5-5-5-5-5-5-5--3-3-3-3-3-3-3-3-|
          D|-6-6-6-6-6-6-6-6--4-4-4-4-4-4-4-4-|
          A|-6-6-6-6-6-6-6-6--4-4-4-4-4-4-4-4-|
          E|-4-4-4-4-4-4-4-4--2-2-2-2-2-2-2-2-|

e|-4-------------2--------|
B|-4--4----------2--2-----|
G|-5----5--------3----3---|
D|-6------6------4------4-|
A|-6-------------4--------|
E|-4-------------2--------|

Bridge:
(the numbers with . means light pick)
e|-4----------2---2.-------4----------2--2.----|
B|-4----4.----2----2.------4----4.----2---2.---|
G|-5---5.-----3-3.--3.-----5---5.-----3-3.-3.--|
D|-6--6.------4------4.----6--6.------4-----4.-|
A|-6-6.-------4------------6-6.-------4--------|
E|-4----------2------------4----------2--------|

e|-4----------2---2.-------4----------2--2-2-2-2-2-|
B|-4----4.----2----2.------4----4.----2--2-2-2-2-2-|
G|-5---5.-----3-3.--3.-----5---5.-----3--3-3-3-3-3-|
D|-6--6.------4------4.----6--6.------4--4-4-4-4-4-|
A|-6-6.-------4------------6-6.-------4--4-4-4-4-4-|
E|-4----------2------------4----------2--2-2-2-2-2-|

Repeat Chorus:
(no guitar and bass, drums and vocals only)
Enter to the part:
"and its a mystery.."
e|-4-------------2-------------4-------------2--2-2-2-2-2-|
B|-4--4----------2--2----------4--4----------2--2-2-2-2-2-|
G|-5----5--------3----3--------5----5--------3--3-3-3-3-3-|
D|-6------6------4------4------6------6------4--4-4-4-4-4-|
A|-6-------------4-------------6-------------4--4-4-4-4-4-|
E|-4-------------2-------------4-------------2--2-2-2-2-2-|

Repeat Chorus and Intro

Then End -

Note: its nice to play this song if you have a chorus gadget.
 because if you do use chorus gadget, its clean, clear and sounds
 awesome..=)

That’s all..im not that sure about the lyrics..=)..but im sure about the tabs..just want 
have lots of friends to jam with or just friends add us pls. in MySpace 
in
 Friendster -> shakewell_band@yahoo.com , iansfab@yahoo.com.
Thnx guys 4 ur time..pls rate..thnx..!!=)

Hello to my baby cindy..love you always and 4ever..=)
Ingat ka always..=)..muuuaaaah..

Hello to my band shakewell

sha>|ewe||
ian bernard (lead, rhythm, vocals)
jade mark (rhythm, 2nd voice)
james (bass)
jon alec(drums)

Thank you www.ultimate-guitar.com ..
Love ya guys..luv ya ol..
Ty ty ty ty ty…

            
            
Suggest correction
Creating personal tab
Creating personal tab
You can edit any tab online and save it as your Personal.

You can edit, replace or remove any tab part or add personal notes – all changes will be seen only by you.

Personal tabs can be accessed anytime from any device, even offline.
Learn more »
Give kudos to tab author, rate the tab!
1 2 3 4 5
comments
print report bad tab
3 comments total.
0 reply
yeoj321 46 Jun 19, 2007 02:56 AM

mababa ng isang fret ang kuha nio...actually it's played on A and G chord... ang ginawa mo kc G# at F#... A and G un khit panuorin nio pa cla ng live...

0 reply
marcoRAKIZTA 41 Feb 18, 2008 10:43 PM

putang sabog!!! kanina pa 2ng yeoj321..tanga mu nmn bubu idol mu ba ang kjwan??

0 reply
lejtalens 10 Feb 28, 2008 05:41 AM

e-----------------4--h6--s8-11--8--6-6-s8-6-p4
b---------------------------9-----------------
g--3--s5--h8--p5--5--h6--s8-----8--6-6-s8-6-p5
d--4--s6--h8--p6------------------------------
a---------------------------------------------
e---------------------------------------------

e--11--11-11-p9--8-6-8-9--p8
b---------------------------
g--11--11-11-p10-8-6-6-10-p8
d---------------------------
a---------------------------
e---------------------------

e-----------------4--h6--s8-11--8--6-6-s8-6-p4
b---------------------------9-----------------
g--3--s5--h8--p5--5--h6--s8-----8--6-6-s8-6-p5
d--4--s6--h8--p6------------------------------
a---------------------------------------------
e---------------------------------------------

e--11--11-11-p9--8-6-8-
b----------------------
g--11--11-11-p10-8-6-6-
d----------------------
a----------------------
e----------------------


the execution of the intro is quite difficult.. rest is quite accurate..

guest
You may want to rate the tab now too:
select rating
Wanna post a correction for this tab? Suggest correction