Oops, an error
Loading. Please wait.

Pintura tab

version 1
version 1

Whole song

by Kjwan
10,889 views 24 this week
no commentswrite comment
1 2 3 4 5
1 last vote to show rating
add to favorites
×
Save as Personal and add changes to this tab that will be seen only by you. Learn more ›
×
You can save this tab as Personal to edit and correct it or add notes. All changes will be seen only by you. Learn more »
launch autoscroll
font size
0
reset
how to read this tab
guitar tuner
edit
Autoscroll
slow
fast
+/-
esc
set tempo
stop
Author
Pintura Tab by Kjwan

Album: 2 step marv
Tab by: Ian Bernard Gilay -> fritzoy
From shakewell band of cdo(cagayan de oro city)

Hello guys!! Hello www.ultimate-guitar!!
This song Pintura is from their new release album of kjwan, titled 2 step marv. It is a 
song and a nice album and it really rock you on.. well its 90% accurate.. paki rate lng 
shakewell_band@yahoo.com..iansfab@yahoo.com..


Intro:
After slide of bass
G and F Chords

e|-3-3-x-x-1-1-x-x-3-3-x-x-1-1-x-x-1-1---------|
B|-3-3-x-x-1-1-x-x-3-3-x-x-1-1-x-x-1-1--4-2-5--|
G|-3-3-x-x-1-1-x-x-3-3-x-x-1-1-x-x-1-1---------|
D|-5-5-x-x-3-3-x-x-5-5-x-x-3-3-x-x-3-3---------|
A|-5-5-x-x-3-3-x-x-5-5-x-x-3-3-x-x-3-3---------|
E|-3-3-x-x-1-1-x-x-3-3-x-x-1-1-x-x-1-1---------|

e|-3-3-x-x-1-1-x-x-3-3-x-x-1-1-x-x-1-1---------|
B|-3-3-x-x-1-1-x-x-3-3-x-x-1-1-x-x-1-1--4-2-5--|
G|-3-3-x-x-1-1-x-x-3-3-x-x-1-1-x-x-1-1---------|
D|-5-5-x-x-3-3-x-x-5-5-x-x-3-3-x-x-3-3---------|
A|-5-5-x-x-3-3-x-x-5-5-x-x-3-3-x-x-3-3---------|
E|-3-3-x-x-1-1-x-x-3-3-x-x-1-1-x-x-1-1---------|

e|-3-3-x-x-1-1-x-x-3-3-x-x-1-1-x-x-1-1---------|
B|-3-3-x-x-1-1-x-x-3-3-x-x-1-1-x-x-1-1--4-2-5--|
G|-3-3-x-x-1-1-x-x-3-3-x-x-1-1-x-x-1-1---------|
D|-5-5-x-x-3-3-x-x-5-5-x-x-3-3-x-x-3-3---------|
A|-5-5-x-x-3-3-x-x-5-5-x-x-3-3-x-x-3-3---------|
E|-3-3-x-x-1-1-x-x-3-3-x-x-1-1-x-x-1-1---------|

e|-3-3-x-x-1-1-x-x-3-3-x-x-1-1-x-x-1-1---------|
B|-3-3-x-x-1-1-x-x-3-3-x-x-1-1-x-x-1-1---------|
G|-3-3-x-x-1-1-x-x-3-3-x-x-1-1-x-x-1-1---------|
D|-5-5-x-x-3-3-x-x-5-5-x-x-3-3-x-x-3-3---------|
A|-5-5-x-x-3-3-x-x-5-5-x-x-3-3-x-x-3-3---------|
E|-3-3-x-x-1-1-x-x-3-3-x-x-1-1-x-x-1-1---------|

Lead 1 repeat 4x
e|-----------------------------------------------------|
B|-----------------------------------------------------|
G|-----------------------------------------------------|
D|-----------------------------------------------------|
A|-3-5-3-0--------------5-3-0--------------------------|
E|---------3b-3-0-3-0-3--------3b--0-3-0-3-0-0-0-0-0---|

Verse 1:
e|-3-3-x-x-1-1-x-x-3-3-x-x-1-1-------------|
B|-3-3-x-x-1-1-x-x-3-3-x-x-1-1-------------|
G|-3-3-x-x-1-1-x-x-3-3-x-x-1-1-------------|
D|-5-5-x-x-3-3-x-x-5-5-x-x-3-3---0---------| 7x
A|-5-5-x-x-3-3-x-x-5-5-x-x-3-3--3-1-0------|
E|-3-3-x-x-1-1-x-x-3-3-x-x-1-1-------------|

e|-3-3-x-x-1-1-x-x-3-3-x-x-1-1--------------|
B|-3-3-x-x-1-1-x-x-3-3-x-x-1-1--------------|
G|-3-3-x-x-1-1-x-x-3-3-x-x-1-1--------------|
D|-5-5-x-x-3-3-x-x-5-5-x-x-3-3--1-1-3--3-5--|b
A|-5-5-x-x-3-3-x-x-5-5-x-x-3-3--------------|
E|-3-3-x-x-1-1-x-x-3-3-x-x-1-1--------------|

Chorus:
 Same as lead 1 (4x)
After lead 1
e|-3
B|-3
G|-3
D|-5 (let it ring and bend)
A|-5
E|-3

Verse 2:
 Same as verse 1

Repeat Chorus

Solo:
e|----------------------------------------------------|
B|----------------------------------------------------|
G|-4h5-----1-2-2h3--1h3-3--1h3-3--1h3-3-1-------------|
D|-----------------------------------------5/6--3/4/3-|
A|----------------------------------------------------|
E|----------------------------------------------------|

Drums
After the solo of bass
e|-3-----------------3---------------|
B|-3-----------------3---------------|
G|-3-----------------3---------------|
D|-5-(let it ring)---5-(let it ring)-|
A|-5-----------------5---------------|
E|-3-----------------3---------------|

Short Pause all instruments
Then –
Repeat chorus 2x
Then end

Lyrics:
Verse1:
Sino may alam
Kung saan ang daan
Patungo sa kanyang isipan
Sa isang halik mo lang ako ay pumopunta
Sa mundo ng kanyang pininturahan

Chorus:
Sino ka ba
Ano ang iyong lihim
Papaano kita ma papaibig
Mapapasakin

Verse2:
Lahat ng kulay nya
Sabay kumakanta
Tumatawag sa akin halina...halina..
Na uubos lahat ng galit at sama
At ang mundong na pupuno ng pag-asa

Repeat chorus

Solo

Repeat chorus 2x

End

That’s all..im not that sure about the lyrics..=)..but im sure about the tabs..just want 
have lots of friends to jam with or just friends add us pls. in MySpace 
in
 Friendster -> shakewell_band@yahoo.com , iansfab@yahoo.com.
Thnx guys 4 ur time..pls rate..thnx..!!=)

Hello to my baby cindy..love you always and 4ever..=)
Ingat ka always..=)..muuuaaaah..

Hello to my band shakewell

sha>|ewe||
ian bernard (lead, rhythm, vocals)
jade mark (rhythm, 2nd voice)
james (bass)
jon alec(drums)

Thank you www.ultimate-guitar.com ..
Love ya guys..luv ya ol..
Ty ty ty ty ty…

            
            
Suggest correction
Creating personal tab
Creating personal tab
You can edit any tab online and save it as your Personal.

You can edit, replace or remove any tab part or add personal notes – all changes will be seen only by you.

Personal tabs can be accessed anytime from any device, even offline.
Learn more »
Give kudos to tab author, rate the tab!
1 2 3 4 5
comments
print report bad tab
guest
You may want to rate the tab now too:
select rating
Wanna post a correction for this tab? Suggest correction