Oops, an error
Loading. Please wait.

Pintura tab

version 2
version 2

Whole song

by Kjwan
8,682 views 1 this week
no commentswrite comment
1 2 3 4 5
1 last vote to show rating
add to favorites
×
Save as Personal and add changes to this tab that will be seen only by you. Learn more ›
×
You can save this tab as Personal to edit and correct it or add notes. All changes will be seen only by you. Learn more »
launch autoscroll
font size
0
reset
how to read this tab
guitar tuner
edit
Autoscroll
slow
fast
+/-
esc
set tempo
stop
                           "PINTURA" BY KJWAN
                       transcribed by: freongang  
                   visit me at: freongang_81@yahoo.com 
                        freongang_08@yahoo.com  


 intro:  guitarI
e|------3-----------------------|
B|------3-----------------------|
G|------4-----------------------|
D|------5-----------------------|
A|------5-(let ring)------------|
E|------3-----------------------|
         guitarII
e|--5---6----5----6----5-----6--|
B|----4---------4---------4-----|
G|------------------------------|
D|------------------------------|
A|------------------------------|
E|------------------------------|
           Both guitar
e|----------------------------------------------------------|
B|----------------------------------------------------------|
G|----------------------------------------------------------|
D|----------------------------------------------------------|
A|--0-5-3-0--------------------0-5-3-0----------------------|
E|-----------5---0-3-5-3-5b------------5---0-3-5-3-5b-5-3-2-|

Sinong may alam…  X8
e|-------------------------|
B|-------------------------|
G|-------------------------|
D|--5-5--5---3-3---3-------|
A|--5-5--5---3-3---3-------|
E|--3-3--3---1-1---1-------|
    Then proceed here….
e|----------------------------8---11b--|
B|--------------5----8-9--10------10b--|
G|--------5--7-------------------------|
D|--5--7-------------------------------|
A|-------------------------------------|
E|-------------------------------------|

Chorus:
Sino ka ba, ano ang iyong lihim…
e|----------------------------------------------------------|
B|----------------------------------------------------------|
G|----------------------------------------------------------|
D|----------------------------------------------------------|
A|--0-5-3-0--------------------0-5-3-0----------------------|
E|-----------5---0-3-5-3-5b------------5---0-3-5-3-5b-5-3-2-|
           <<<>>>


                      SA ILALIM BY: KJWAN
                   TRANSCRIBED BY: FREONGANG
                VISIT ME AT: freongang_81@yahoo.com
                    freongang_08@yahoo.com

intro:
e|-------------------------------------------------------------------|
B|-------------------------------------------------------------------|
G|-------------------------------------------------------------------|
D|-8-8-8-8-8-8-8-8--8-8-8-8-8-8-8-8--4-4-4-4-4-4-4---4-4-4-4--3-3--6-|
A|-8-8-8-8-8-8-8-8--8-8-8-8-8-8-8-8--4-4-4-4-4-4-4---4-4-4-4--3-3--6-|
E|-6-6-6-6-6-6-6-6--6-6-6-6-6-6-6-6--2-2-2-2-2-2-2---2-2-2-2--1-1--4-|

nahigop sa ilalim...
e|-------------------  --------------------|
B|-------------------  --------------------|
G|-------------------  --------------------|
D|-8-8-8-6---8-8-8-6-  --8-8-8-6---8-8-8-6-|
A|-8-8-8-6---8-8-8-6-  --8-8-8-6---8-8-8-6-|
E|-------------------  --------------------|

binuksan ang mata...
e|-------------------  --------------------|
B|-------------------  --------------------|
G|-------------------  --------------------|
D|-6-6-6-4---6-6-6-4-  --6-6-6-4---6-6-6-4-|
A|-6-6-6-4---6-6-6-4-  --6-6-6-4---6-6-6-4-|
E|-------------------  --------------------|

nakita ang pag ibig...
e|-------------------  --------------------|
B|-------------------  --------------------|
G|-------------------  --------------------|
D|-8-8-8-6---8-8-8-6-  --8-8-8-6---8-8-8-6-|
A|-8-8-8-6---8-8-8-6-  --8-8-8-6---8-8-8-6-|
E|-------------------  --------------------|

nasilaw sa ganda...
e|-------------------  --------------------|
B|-------------------  --------------------|
G|-------------------  --------------------|
D|-6-6-6-4---6-6-6-4-  --6-6-6-4---6-6-6-4-|
A|-6-6-6-4---6-6-6-4-  --6-6-6-4---6-6-6-4-|
E|-------------------  --------------------|


chorus: X2
 handa ka na ba para makita ang iyong kinagisnan...
e|-------------------------------------------------------------------|
B|-------------------------------------------------------------------|
G|-------------------------------------------------------------------|
D|-8-8-8-8-8-8-8-8--8-8-8-8-8-8-8-8--4-4-4-4-4-4-4---4-4-4-4--3-3--6-|
A|-8-8-8-8-8-8-8-8--8-8-8-8-8-8-8-8--4-4-4-4-4-4-4---4-4-4-4--3-3--6-|
E|-6-6-6-6-6-6-6-6--6-6-6-6-6-6-6-6--2-2-2-2-2-2-2---2-2-2-2--1-1--4-|

adlib1:
        X2
e|-----------------  ----------------  --------------|
B|--------10-9-11b-  -9b--------7-6--  --------------|
G|-10-7-9----------  ----7-10-9------  --9-9-7-5-5-8-|
D|-----------------  ----------------  --------------|
A|-----------------  ----------------  --------------|
E|-----------------  ----------------  --------------|

dumaloy ang daluyong...
e|-------------------  --------------------|
B|-------------------  --------------------|
G|-------------------  --------------------|
D|-8-8-8-6---8-8-8-6-  --8-8-8-6---8-8-8-6-|
A|-8-8-8-6---8-8-8-6-  --8-8-8-6---8-8-8-6-|
E|-------------------  --------------------|

naubos ang lakas...
e|-------------------  --------------------|
B|-------------------  --------------------|
G|-------------------  --------------------|
D|-6-6-6-4---6-6-6-4-  --6-6-6-4---6-6-6-4-|
A|-6-6-6-4---6-6-6-4-  --6-6-6-4---6-6-6-4-|
E|-------------------  --------------------|

sumama sa pag agos...
e|-------------------  --------------------|
B|-------------------  --------------------|
G|-------------------  --------------------|
D|-8-8-8-6---8-8-8-6-  --8-8-8-6---8-8-8-6-|
A|-8-8-8-6---8-8-8-6-  --8-8-8-6---8-8-8-6-|
E|-------------------  --------------------|

nalunod nawala...
e|-------------------  --------------------|
B|-------------------  --------------------|
G|-------------------  --------------------|
D|-6-6-6-4---6-6-6-4-  --6-6-6-4---6-6-6-4-|
A|-6-6-6-4---6-6-6-4-  --6-6-6-4---6-6-6-4-|
E|-------------------  --------------------|

chorus: X2
 handa ka na ba para makita ang iyong kinagisnan...
e|-------------------------------------------------------------------|
B|-------------------------------------------------------------------|
G|-------------------------------------------------------------------|
D|-8-8-8-8-8-8-8-8--8-8-8-8-8-8-8-8--4-4-4-4-4-4-4---4-4-4-4--3-3--6-|
A|-8-8-8-8-8-8-8-8--8-8-8-8-8-8-8-8--4-4-4-4-4-4-4---4-4-4-4--3-3--6-|
E|-6-6-6-6-6-6-6-6--6-6-6-6-6-6-6-6--2-2-2-2-2-2-2---2-2-2-2--1-1--4-|

adlib2: X2
            X3                            X2
e|----------------------------  -------------------------|
B|----------------------------  -------------------------|
G|-8/10-10-10--10/13-13-13-13-  -17-17-17--16-16--14-14--|
D|----------------------------  -------------------------|
A|-6/8--8--8---8/-11-11-11-11-  -15-15-15--14-14--12-12--|
E|----------------------------  -------------------------|
              -just follow the sequence-
                       freongang


            
            
Suggest correction
Creating personal tab
Creating personal tab
You can edit any tab online and save it as your Personal.

You can edit, replace or remove any tab part or add personal notes – all changes will be seen only by you.

Personal tabs can be accessed anytime from any device, even offline.
Learn more »
Give kudos to tab author, rate the tab!
1 2 3 4 5
comments
print report bad tab
guest
You may want to rate the tab now too:
select rating
Wanna post a correction for this tab? Suggest correction