Oops, an error
Loading. Please wait.

Sa Ilalim tab

version 2
version 2

Whole song

by Kjwan
917 views 6 this week
no commentswrite comment
1 2 3 4 5
3 more votes to show rating
add to favorites
×
Save as Personal and add changes to this tab that will be seen only by you. Learn more ›
×
You can save this tab as Personal to edit and correct it or add notes. All changes will be seen only by you. Learn more »
launch autoscroll
font size
0
reset
how to read this tab
guitar tuner
edit
Autoscroll
slow
fast
+/-
esc
set tempo
stop
Sa Ilalim - Kjwan
Drop D Tuning


INTRO
e|-----------------------------------|
B|-----------------------------------|
G|-----------------------------------|
D|---9---5---4---7-------------------|
A|---9---5---4---7-------------------|
D|---9---5---4---7-------------------|
    16x  8x  6x  2x

e|------------------------------|
B|------------------------------|
G|------------------------------|
D|---9---5---4------------------|
A|---9---5---4------------------|
D|---9---5---4------------------|
    16x  8x  8x
VERSE

nahigop...
e|-----------------------------------|
B|-----------------------------------|
G|-----------------------------------|
D|-------7--------7------------------|
A|-------7--------7------------------|
D|-9-9-9-7--9-9-9-7------------------|

                                                2x

e|-----------------------------------|
B|-----------------------------------|
G|-----------------------------------|
D|-------3--------3------------------|
A|-------3--------3------------------|
D|-5-5-5-3--5-5-5-3------------------|

CHORUS
handa ka na ba..
e|-----------------------------------|
B|-----------------------------------|
G|-----------------------------------|
D|---9---5---4---7-------------------|
A|---9---5---4---7-------------------|
D|---9---5---4---7-------------------|
    16x  8x  6x  2x

Back to verse
Chorus


basically, eto na ung ginamit sa kanta.. lead parts coming soon hahahaha...

sana tama.. medyo katunog naman e.. hahaha.. hi sa Yakisoba!
Suggest correction
Creating personal tab
Creating personal tab
You can edit any tab online and save it as your Personal.

You can edit, replace or remove any tab part or add personal notes – all changes will be seen only by you.

Personal tabs can be accessed anytime from any device, even offline.
Learn more »
Give kudos to tab author, rate the tab!
1 2 3 4 5
comments
print report bad tab
guest
You may want to rate the tab now too:
select rating
Wanna post a correction for this tab? Suggest correction