Oops, an error
Loading. Please wait.

Yaaron tab

version 1
version 1

Whole song

Interactive

by KK
48,906 views 18 this week
3 commentsread comments
1 2 3 4 5
x 7
add to favorites
×
Save as Personal and add changes to this tab that will be seen only by you. Learn more ›
×
You can save this tab as Personal to edit and correct it or add notes. All changes will be seen only by you. Learn more »
launch autoscroll
font size
0
reset
how to read this tab
guitar tuner
edit
Autoscroll
slow
fast
+/-
esc
set tempo
stop
Author
hey ppl....
dis is mah 1st tab...so dunno id itz all rite... at least it soundz 90% correct.......njoi..
by da way u can mail me at zahebhere@yahoo.com

This part is palyd thru out da song.....(the song starts with this part too)
E|-------0-1-0---|------|------------------------------------------|
B|------2-----2--|--2-0-|--22-22-2---------------------------------|
G|-----3-------3-|-3----|-3----------------------------------------|
D|----0----------|------|------------------------------------------|
A|---------------|------|------------------------------------------|
E|---------------|------|------------------------------------------|

the chords r like dis:
(there's a riff in between marked by *)

D.........G......D............G.....A....
Yaaron, dosti bari hi haseen hai
.........D......G...........D...................G...A..
Ye na ho to, kya phir, bolo yeh zindagi hai
......Bm........G....
Koi to ho razdaar
.......D..............Em..
Begaraz tera ho yaar
.....Bm...........D......
Koi to ho raazdaar *

D..........G............D..............G....A...
Yaaron, mohabbat hi to bandagi hai
.........D......G.........D....................G..A...
Ye na ho to kya phir bolo yeh zindagi hai
.....Bm.............G.....
Koi to dilbar ho yaar
D....................Em...
Jisko tujhse ho pyar
.....Bm.............D.....
Koi to dilbar ho yaar *

Bm........F#m..........G................D....
Teri har ek buraee pe dante woh dost
Bm..............F#m.....................G..............D.......G
Gham ki ho dhoop to saaya bane tera woh dost
G...................D...........A.......
Nache bhi woh teri khushi se

D.........G......D............G.....A....
Yaaron, dosti bari hi haseen hai
.........D......G...........D...................G...A..
Ye na ho to, kya phir, bolo yeh zindagi hai
......Bm........G....
Koi to ho razdaar
.......D..............Em..
Begaraz tera ho yaar
.....Bm...........D......
Koi to ho raazdaar *


Bm.............F#m..........G...............D...
Tanman kare tujhpe fida mehboob woh
Bm..........F#m.............G...............D............G
Palkon pe jo rakhe tujhe mehboob woh
G...........D...........A......
Jiski wafaa tere liye ho

D..........G............D..............G....A...
Yaaron, mohabbat hi to bandagi hai
.........D......G.........D....................G..A...
Ye na ho to kya phir bolo yeh zindagi hai
.....Bm.............G.....
Koi to dilbar ho yaar
D....................Em...
Jisko tujhse ho pyar
.....Bm.............D.....
Koi to dilbar ho yaar *

*Filler riff :

E|----------5-------2------1p0---------------------------------------------|
A|--------------------------------------3----------------------------------|
D|-------------------------------------------------------------------------|
G|-------------------------------------------------------------------------|
B|-------------------------------------------------------------------------|
E|-------------------------------------------------------------------------|

            
            
Suggest correction
Creating personal tab
Creating personal tab
You can edit any tab online and save it as your Personal.

You can edit, replace or remove any tab part or add personal notes – all changes will be seen only by you.

Personal tabs can be accessed anytime from any device, even offline.
Learn more »
comments
print report bad tab
3 comments total.
0 reply
icyfingers 82 Jan 30, 2009 12:35 AM

The chords and the filler riff are right but the intro isn't. The intro would be an arpeggiated D major chord.
---2-3-2-----------
--3-----3-----3--3--
-2--------2--2--2---
0----------0---0--- => Something like that, that's not perfect but it gives an idea!

0 reply
ervellsal 10 Apr 24, 2012 12:24 PM

The chords are correct but I've tabbed a slight variation to the intro that sounds a little better to me!

----------0-2-0-------|-----------------------------||
-------3---------3----|-------3--------3------3-----||
----2---------------2-|----2--------2---------2-----||
-0--------------------|-----------------------------||
----------------------|-2-----------------0---------||
----------------------|----------3------------------||

+1 reply
ervellsal 10 Apr 24, 2012 12:30 PM

The chords are correct but I've tabbed a slight variation to the intro that sounds a little better to me!

----------0-2-0-------|-----------------------------||
-------3---------3----|-------3--------3------3-----||
----2---------------2-|----2--------2---------2-----||
-0--------------------|-----------------------------||
----------------------|-2-----------------0---------||
----------------------|----------3------------------||

guest
You may want to rate the tab now too:
select rating
Wanna post a correction for this tab? Suggest correction