Oops, an error
Loading. Please wait.

Kaunehin Oot Chords

1,198 views 54 this week
no commentswrite comment
1 2 3 4 5
2 more votes to show rating
add to favorites
launch autoscroll
font size
0
reset
transpose
0
reset
simplify chords
display chords
guitar tuner
Autoscroll
slow
fast
+/-
esc
set tempo
stop
Help us to improve Ultimate-Guitar.com Take our survey!
×
Author
Difficulty
novice
[Intro]

     A5          C5        F5                C5 G5
e|---------------------------------------------------------------------------|
B|-------5-5---------5-5-------5-5-----6-6-5---------------------------------|
G|-----5-----5-5---5-----5---5-----5-5-------5-5-7---------------------------|
D|---7-----------5---------3-------------------------------------------------|
A|---------------------------------------------------------------------------|
E|---------------------------------------------------------------------------|


     A5          C5        F5                C5 G5    A5
e|---------------------------------------------------------------------------|
B|-------5-5---------5-5-------5-5-----6-6-5---------------------------------|
G|-----5-----5-5---5-----5---5-----5-5-------5-5-7---------------------------|
D|---7-----------5---------3-----------------------7-------------------------|
A|---------------------------------------------------------------------------|
E|---------------------------------------------------------------------------|
 

[Verse 1]

       A5              G5
No mä vierees kurvaan tuhatta
         D5            E5
ja sataa vanhalla vanilla,
   A5          G5
On mulla wunderbaumi
       D5           E5
jonka tuoksu on vanilla,
    A5                 G5
Oi kulta pieni, ku sä näytät
          D5             E5
aina niin helevetin hyvältä,
A5              G5
Sä vaan oot mun jumalatar
   D5           E5
ja muut on syvältä.


[Chorus]
   A5       E5   C5            G5
Sä kaunehin oot, tämän taivaan alla.
D5                   E5
Vaikee uskoa et säki käyt asialla.
   A5       E5  C5            G5
Sä kaunehin oot tämän taivaan alla.
D5                   E5
Tosi vaikee uskoa et säki käyt
E5
joskus paskalla.

[Intro]

     A5          C5        F5                C5 G5
e|---------------------------------------------------------------------------|
B|-------5-5---------5-5-------5-5-----6-6-5---------------------------------|
G|-----5-----5-5---5-----5---5-----5-5-------5-5-7---------------------------|
D|---7-----------5---------3-------------------------------------------------|
A|---------------------------------------------------------------------------|
E|---------------------------------------------------------------------------|


     A5          C5        F5                C5 G5    A5
e|---------------------------------------------------------------------------|
B|-------5-5---------5-5-------5-5-----6-6-5---------------------------------|
G|-----5-----5-5---5-----5---5-----5-5-------5-5-7---------------------------|
D|---7-----------5---------3-----------------------7-------------------------|
A|---------------------------------------------------------------------------|
E|---------------------------------------------------------------------------|
 

[Verse 2]
       A5           G5
No me ajetaan niin lujaa
         D5         E5
ku tällä laatikolla voi,
A5              G5
Kaheksaakymppiä väärää kaistaa
   D5             E5
ja korvissa tuuli soi,
   A5          G5
Sä silität mun niskaani
   D5           E5
ja minä kehrään vaan,
A5            G5
Kiinni pistän simmuni
   D5     E5
ku ojaan lasautetaan.


[Chorus]

   A5       E5   C5            G5
Sä kaunehin oot, tämän taivaan alla.
D5                   E5
Vaikee uskoa et säki käyt asialla.
   A5       E5  C5            G5
Sä kaunehin oot tämän taivaan alla.
D5                   E5
Tosi vaikee uskoa et säki käyt
E5
joskus paskalla.

[Solo]

   A5                              G5  
e|---------------------------------------------------------------------|
B|-5-------------------------------5-----------------------------------|
G|---7-5-4-5-4-----------4-5-4-5-7---7-5-4-5-4-------------4-5-4-5-7---|
D|-------------7-5-7-5-7-----------------------7-5-7-5-7---------------|
A|---------------------------------------------------------------------|
E|---------------------------------------------------------------------|

   F5              G5               D5      E5      F5     G5
e|---------------------------------------------------------------------|
B|-5---------------5----------------6-5-----5--------------------------|
G|---7-5-4-5-4-------7-5-4-5-4----------7-5---7-5-4-------4-5-4-5-7----|
D|-------------7-5--------------7-5-----------------7-5-7--------------| X2
A|---------------------------------------------------------------------|
E|---------------------------------------------------------------------|

Tätä kaksi kiertoa ja toisella kierrolla tulee toinen kitara tähän päälle. Sovella jotain, ole sankari! ;)

[Outro]

   A5       E5   C5            G5
Sä kaunehin oot, tämän taivaan alla.
D5                   E5
Vaikee uskoa et säki käyt asialla.
   A5       E5  C5            G5
Sä kaunehin oot tämän taivaan alla.
D5                   E5
Tosi vaikee uskoa et säki käyt
E5
joskus paskalla.
Suggest correction
Give kudos to tab author, rate the tab!
1 2 3 4 5
comments
print report bad tab
guest
You may want to rate the tab now too:
select rating
Wanna post a correction for this tab? Suggest correction