Oops, an error
Loading. Please wait.

Hostage Tab

46 views 9 this week
no commentswrite comment
1 2 3 4 5
1 last vote to show rating
add to favorites
launch autoscroll
font size
0
reset
how to read this tab
guitar tuner
Autoscroll
slow
fast
+/-
esc
set tempo
stop
Help us to improve Ultimate-Guitar.com Take our survey!
×
Author
Difficulty
intermediate
------------------------------------------------------------------------------
                           Klangstof - Hostage
------------------------------------------------------------------------------
from 'Close Eyes to Exit'.


[Intro]

e|-----------------------------------------------------|
B|-----------------------------------------------------|
G|-----------------------------------------------------|
D|--------------------------------------------------10-|
A|--------------------------------------------------10-|
E|--------------------------------------------------8--|


[Verse 1]  

e|-------------------------|---------------------------|
B|-------------------------|---------------------------|
G|-------------------------|-------------------------7-|
D|-10-------10-10-------7--|-7--------7---7----------x-|
A|-10-------10-10-------10-|-10-------10--10---------8-|
E|-8--------8--8--------8--|-8--------8---8----------6-|
                                                            
e|-------------------------|---------------------------| 
B|-------------------------|---------------------------|   
G|-7--------7--7--------7--|-7--------7--7-------------|   
D|-x--------x--x--------x--|-x--------x--x----------10-|
A|-8--------8--8--------8--|-8--------8--8----------10-|
E|-6--------6--6--------6--|-6--------6--6----------8--|  

e|-------------------------|---------------------------|
B|-------------------------|---------------------------|
G|-------------------------|-------------------------7-|
D|-10-------10-10-------10-|-10-------7---7----------x-|
A|-10-------10-10-------10-|-10-------10--10---------8-|
E|-8--------8--8--------8--|-8--------8---8----------6-|
                                                             
e|-------------------------|---------------------------|  
B|-------------------------|---------------------------|  
G|-7--------7--7--------7--|-7--------7--7-------------|   
D|-x--------x--x--------x--|-x--------x--x-------------|
A|-8--------8--8--------8--|-8--------8--8-------------|
E|-6--------6--6--------6--|-6--------6--6-------------| 


[Break]

e|-8------8------8------8------|-8------8------8------8-------|
B|---10-----10-----10-----10---|---10-----10-----10-----10----|
G|------9------9------9------9-|------9------9------9------9--|
D|-----------------------------|------------------------------|
A|-----------------------------|------------------------------|
E|-----------------------------|------------------------------|

e|-13-10----13-10----13-10----13-10----|-13-10----13-10----13-10----13-10----|
B|-------13-------13-------13-------13-|-------13-------13-------13-------13-|
G|-------------------------------------|-------------------------------------|
D|-------------------------------------|-------------------------------------|
A|-------------------------------------|-------------------------------------|
E|-------------------------------------|-------------------------------------|


[Verse 2]
  
e|-------------------------|---------------------------|
B|-------------------------|---------------------------|
G|-------------------------|-------------------------7-|
D|-10-------10-10-------7--|-7--------7---7----------x-|
A|-10-------10-10-------10-|-10-------10--10---------8-|
E|-8--------8--8--------8--|-8--------8---8----------6-|
                                                            
e|-------------------------|---------------------------| 
B|-------------------------|---------------------------|   
G|-7--------7--7--------7--|-7--------7--7-------------|   
D|-x--------x--x--------x--|-x--------x--x----------10-|
A|-8--------8--8--------8--|-8--------8--8----------10-|
E|-6--------6--6--------6--|-6--------6--6----------8--|  

e|-------------------------|---------------------------|
B|-------------------------|---------------------------|
G|-------------------------|-------------------------7-|
D|-10-------10-10-------10-|-10-------7---7----------x-|
A|-10-------10-10-------10-|-10-------10--10---------8-|
E|-8--------8--8--------8--|-8--------8---8----------6-|
                                                             
e|-------------------------|---------------------------|  
B|-------------------------|---------------------------|  
G|-7--------7--7--------7--|-7--------7--7-------------|   
D|-x--------x--x--------x--|-x--------x--x-------------|
A|-8--------8--8--------8--|-8--------8--8-------------|
E|-6--------6--6--------6--|-6--------6--6-------------| 


[Chorus 1]

e|-------------------------------------|-------------------------------------|
B|----8-----8-----8-----8-----8-----8--|----8-----8-----8-----10----10----10-|
G|-------------------------------------|-------------------------------------|
D|-8-----8-----8-----8-----8-----8-----|-8-----8-----8-----10----10----10----|
A|-------------------------------------|-------------------------------------|
E|-------------------------------------|-------------------------------------|

e|-------------------------------------|-------------------------------------|
B|----10----10----10-----8-----8-----8-|----8-----8-----8-----8-----8-----8--|
G|-------------------------------------|-------------------------------------|
D|-10----10----10-----8-----8-----8----|-8-----8-----8-----8-----8-----8-----|
A|-------------------------------------|-------------------------------------|
E|-------------------------------------|-------------------------------------|

e|-------------------------------------|-------------------------------------|
B|----10----10----10----10----10----10-|----10----10----10----10----10----8--|
G|-------------------------------------|-------------------------------------|
D|-10----10----10----10----10----10----|-10----10----10----10----10----10----|
A|-------------------------------------|-------------------------------------|
E|-------------------------------------|-------------------------------------|

e|-------------------------------------|-------------------------------------|
B|----11----11----11----11----11----13-|----13----13----13----15----15----15-|
G|-------------------------------------|-------------------------------------|
D|-12----12----12----12----12----12----|-12----12----12----12----12----12----|
A|-------------------------------------|-------------------------------------|
E|-------------------------------------|-------------------------------------|

e|-------------------------------------|-------------------------------------|
B|----10----10----10----10----10----10-|----10----10----10----10----10----10/|
G|-------------------------------------|-------------------------------------|
D|-10----10----10----10----10----10----|-10----10----10----10----10----10----|
A|-------------------------------------|-------------------------------------|
E|-------------------------------------|-------------------------------------|


[Bridge]

The bridge consists of tremolo picking in the scale of D-minor. It starts
with 13th fret on the b-string (a C note). From there, it just goes where
you want.
e|---------------------------------------------------------------------------|
B|/13~-----------------------------------------------------------------------|
G|---------------------------------------------------------------------------|
D|---------------------------------------------------------------------------|
A|---------------------------------------------------------------------------|
E|---------------------------------------------------------------------------|


[Chorus 2]

e|------------------------------------|--------------------------------------|
B|----8-----8-----8-----8-----8-----8-|----8-----8-----8-----8-----8-----8---|
G|------------------------------------|--------------------------------------|
D|-8-----8-----8-----8-----8-----8----|-8-----8-----8-----8-----8-----8------|
A|------------------------------------|--------------------------------------|
E|------------------------------------|--------------------------------------|

e|-------------------------------------|-------------------------------------|
B|----10----10----10----10----10----10-|----10----10----10----10----10----10-|
G|-------------------------------------|-------------------------------------|
D|-10----10----10----10----10----10----|-10----10----10----10----10----10----|
A|-------------------------------------|-------------------------------------|
E|-------------------------------------|-------------------------------------|

e|------------------------------------|--------------------------------------|
B|----8-----8-----8-----8-----8-----8-|----8-----8-----8-----8-----8-----8---|
G|------------------------------------|--------------------------------------|
D|-8-----8-----8-----8-----8-----8----|-8-----8-----8-----8-----8-----8------|
A|------------------------------------|--------------------------------------|
E|------------------------------------|--------------------------------------|

e|-------------------------------------|-------------------------------------|
B|----10----10----10----10----10----10-|----10----10----10----10----10----10-|
G|-------------------------------------|-------------------------------------|
D|-10----10----10----10----10----10----|-10----10----10----10----10----10----|
A|-------------------------------------|-------------------------------------|
E|-------------------------------------|-------------------------------------|

e|------------------------------------|--------------------------------------|
B|----8-----8-----8-----8-----8-----8-|----8-----8-----8-----8-----8-----8---|
G|------------------------------------|--------------------------------------|
D|-8-----8-----8-----8-----8-----8----|-8-----8-----8-----8-----8-----8------|
A|------------------------------------|--------------------------------------|
E|------------------------------------|--------------------------------------|

e|-------------------------------------|-------------------------------------|
B|----10----10----10----10----10----10-|----10----10----10----10----10----10-|
G|-------------------------------------|-------------------------------------|
D|-10----10----10----10----10----10----|-10----10----10----10----10----10----|
A|-------------------------------------|-------------------------------------|
E|-------------------------------------|-------------------------------------|


[Outro]

e|------------------------|-------------------------|  
B|------------------------|-------------------------|   
G|-7--------7--7--------7-|-7--------7--7-----------|   
D|-x--------x--x--------x-|-x--------x--x-----------|
A|-8--------8--8--------8-|-8--------8--8-----------|
E|-6--------6--6--------6-|-6--------6--6-----------|

e|------------------------|-------------------------|
B|-1--------1--1--------1-|-1--------1--1-----------|
G|-2--------2--2--------2-|-2--------2--2---------5-|
D|-3--------3--3--------3-|-3--------3--3---------5-|
A|-3--------3--3--------3-|-3--------3--3---------3-|
E|------------------------|-------------------------|


e|---------------------------------------------------------------------------|
B|---------------------------------------------------------------------------|
G|-5-------------------------------------------------------------------------|
D|-5-------------------------------------------------------------------------|
A|-3-------------------------------------------------------------------------|
E|---------------------------------------------------------------------------|



************************************

| /   slide up
| \   slide down
| ~   vibrato
| x   muted note

************************************
Suggest correction
Give kudos to tab author, rate the tab!
1 2 3 4 5
comments
print report bad tab
guest
You may want to rate the tab now too:
select rating
Wanna post a correction for this tab? Suggest correction