Oops, an error
Loading. Please wait.

Vilo Moja Tab

199 views 66 this week
no commentswrite comment
1 2 3 4 5
2 more votes to show rating
add to favorites
launch autoscroll
font size
0
reset
how to read this tab
guitar tuner
Autoscroll
slow
fast
+/-
esc
set tempo
stop
Help us to improve Ultimate-Guitar.com Take our survey!
×
Author
Difficulty
intermediate
4/4

[Intro]

E|-----------------|-3---------------|-3---2-----------|-----------------|
B|-------------3---|-----0-----------|---------3---0---|-3---------------|
G|-0---2---4-------|---------0-------|-----------------|-4---4-------4---|
D|-----------------|-----------------|-----------------|-4-------4-------|
A|-----------------|-----------------|-----------------|-2---------------|
E|-3-----------3---|-0-----------0---|-0---------------|-----------------|


E|-0---------------|-----------------|-----------------|-----------------|
B|-----3-----------|-0-----------0---|-----------------|-----------------|
G|---------0---2---|-----0-----------|-----2---2--p--0-|-0-----------0---|
D|-----------------|---------0-------|-0-------0-------|-----0-----------|
A|-3---------------|-----------------|-----------------|-----------------|
E|-----------------|-3---------------|-----------------|-3-------3-------|



[Verse]

E|-----------------|-----------------|-----------------|-----------------|
B|-----------------|-----------------|-----1---0---0---|-----------------|
G|-----------------|-2-----------2---|-0---------------|-----------------|
D|-0-0-2---5---2---|-----2---5---0---|-----------------|-0---2---5---2---|
A|-----------------|-0---------------|-----3-----------|-----------------|
E|-3---------------|-----------------|-------------3---|-0---------------|


E|-----------------|-----------------|-------------2---|-3-------3-2-0-3-|
B|-----------------|-----1---0---0---|-0---0-2-3-5---0-|---0---0---------|
G|-2-2---------2---|-0-2-0-------0---|-----------------|-----0-----------|
D|-----2---5---0---|-----2-------0---|-----------------|-----------------|
A|-0---------------|-----3-----------|-2---------------|-----------------|
E|-----------------|-------------3---|-----------------|-0---------------|


E|-2-------------2-|-0---------------|-0---------------|-2---------------|
B|-3-----------3---|-1---1---0-------|-1-------1-0-----|-3---------------|
G|-4---------------|-0-----------2---|-2-----------2-0-|-2---------------|
D|-4---------------|-2---------------|-2---------------|-0---------------|
A|-2---------------|-3---------------|-0---------------|-----------------|
E|-----------------|-----------------|-----------------|-----------------|


[Chorus]

E|-----------------|-----------------|-----------------|-----------------|
B|---------0-0-----|-----1---1-p-0---|-0---------------|-------------3---|
G|-0---2-----------|---------0-------|-0--2-2--0---0---|-0-0-2---4-------|
D|-----0-----------|-----------------|------0----------|-----------------|
A|-----------------|-3-------3-------|-----------------|-----------------|
E|-3-------3-------|-----------------|-3-----------3---|-3---------------|


E|-3-------3-2-----|-----------------|-----------------|-----------------|
B|---0---0-----3-0-|-3-------5-3-----|-0---------------|-----------------|
G|-----0-----------|-4-4---4---------|---0---0-2---2p0-|-0---------------|
D|-----------------|-4---4-------5-7-|-----0---0---0---|-----------------|
A|-----------------|-2-------3-------|---------5-------|-----------------|
E|-0-------0-------|-----------------|-3---------------|-3---------------|


E|-----------------|-3-------3-2-----|-----------------|-----------------|-----------------|
B|-------------3---|---0---0-----3-0-|-3-------5-3-----|-0---------------|-----------------|
G|-0-0-2---4-------|-----0-----------|-4-4---4---------|---0---0-2---2p0-|-0---------------|
D|-----------------|-----------------|-4---4-------5-7-|-----0---0---0---|-----------------|
A|-----------------|-----------------|-2-------3-------|---------5-------|-----------------|
E|-3---------------|-0-------0-------|-----------------|-3---------------|-3---------------|


[Verse]

E|-----------------|-----------------|-----------------|-----------------|
B|-----------------|-----------------|-----1---0---0---|-----------------|
G|-----------------|-2-----------2---|-0---------------|-----------------|
D|-0-0-2---5---2---|-----2---5---0---|-----------------|-0---2---5---2---|
A|-----------------|-0---------------|-----3-----------|-----------------|
E|-3---------------|-----------------|-------------3---|-0---------------|


E|-----------------|-----------------|-------------2---|-3-------3-2-0-3-|
B|-----------------|-----1---0---0---|-0---0-2-3-5---0-|---0---0---------|
G|-2-2---------2---|-0-2-0-------0---|-----------------|-----0-----------|
D|-----2---5---0---|-----2-------0---|-----------------|-----------------|
A|-0---------------|-----3-----------|-2---------------|-----------------|
E|-----------------|-------------3---|-----------------|-0---------------|


E|-2-------------2-|-0---------------|-0---------------|-2---------------|
B|-3-----------3---|-1---1---0-------|-1-------1-0-----|-3---------------|
G|-4---------------|-0-----------2---|-2-----------2-0-|-2---------------|
D|-4---------------|-2---------------|-2---------------|-0---------------|
A|-2---------------|-3---------------|-0---------------|-----------------|
E|-----------------|-----------------|-----------------|-----------------|


[Chorus]

E|-----------------|-----------------|-----------------|-----------------|
B|---------0-0-----|-----1---1-p-0---|-0---------------|-------------3---|
G|-0---2-----------|---------0-------|-0--2-2--0---0---|-0-0-2---4-------|
D|-----0-----------|-----------------|------0----------|-----------------|
A|-----------------|-3-------3-------|-----------------|-----------------|
E|-3-------3-------|-----------------|-3-----------3---|-3---------------|


E|-3-------3-2-----|-----------------|-----------------|-----------------|
B|---0---0-----3-0-|-3-------5-3-----|-0---------------|-----------------|
G|-----0-----------|-4-4---4---------|---0---0-2---2p0-|-0---------------|
D|-----------------|-4---4-------5-7-|-----0---0---0---|-----------------|
A|-----------------|-2-------3-------|---------5-------|-----------------|
E|-0-------0-------|-----------------|-3---------------|-3---------------|


E|-----------------|-3-------3-2-----|-----------------|-----------------|-----------------|
B|-------------3---|---0---0-----3-0-|-3-------5-3-----|-0---------------|-----------------|
G|-0-0-2---4-------|-----0-----------|-4-4---4---------|---0---0-2---2p0-|-0---------------|
D|-----------------|-----------------|-4---4-------5-7-|-----0---0---0---|-----------------|
A|-----------------|-----------------|-2-------3-------|---------5-------|-----------------|
E|-3---------------|-0-------0-------|-----------------|-3---------------|-3---------------|

[Outro]

E|-----------------|-----------------|-----------------|-3-3-3h5---3-----|
B|-1---1---0---0---|-----------------|---1-1---0---0---|-----------3-----|
G|-----------------|-2---2---0---0---|-----------------|-----------0-----|
D|-----------------|-0---------------|-----------------|-----------0-----|
A|-3---------------|-----------------|-3---3-----------|-3---------2-----|
E|-------------3---|-------------3---|-------------3---|-----------3-----|




VERSE:
Skoro saki put
kad se mi pogjedamo
ti i ne odzdraviš
ko da se ne poznamo
A da mi te k sebi zvat
kad ćeš zaspat
prvo sna da ti rečen
da volin te još.

CHORUS:
Vilo moja
ti si moj san, ti si moj san,
al lagje bilo bi
da si tuja mi
da te ne poznan
da te ne znan.

OUTRO:
vilo moja, vilo moja
vilo moja, vilo moja
Suggest correction
Give kudos to tab author, rate the tab!
1 2 3 4 5
comments
print report bad tab
guest
You may want to rate the tab now too:
select rating
Wanna post a correction for this tab? Suggest correction