Oops, an error
Loading. Please wait.

Hes A Pirate Tab

version 2
version 2

Interactive

668,348 views 597 this week
34 commentsread comments
1 2 3 4 5
x 90
add to favorites
launch autoscroll
font size
0
reset
how to read this tab
guitar tuner
Autoscroll
slow
fast
+/-
esc
set tempo
stop
Help us to improve Ultimate-Guitar.com Take our survey!
×
Author
Klaus Badelt - He's a Pirate (Pirates of the Caribbean Theme)

This tab is based on this video by Hemo1985 (http://www.youtube.com/watch?v=_Z_lAjt-gMw)


[Intro] 

(0.00-0.09)
E|--------------------|-------------------|-------------------|---|
B|--------------------|-------------------|-------------------|-7-| let ring
G|--------------------|-------------------|-------------------|-7-|
D|--------------------|-------------------|-------------------|---|
A|-5-5-5-5-5--5-5-5-5-|-5-5-5-5-5-5-5-5-5-|-5-5-5-5-5-5-5-5-5-|-5-|
E|--------------------|-------------------|-------------------|---|
 -Note: 5’s on the A-string are muted, except the one in the chord.


[Main Riff] (x2) 

(0.10-0.37)
E|---------|---------|---------|---------|
B|---------|---5-6-6-|-6-8-5-5-|---------|
G|---5-7-7-|-7-------|---------|--7-5-7--|
D|-7-------|---------|---------|---------|
A|---------|---------|---------|---------|
E|---------|---------|---------|---------|

E|---------|---------|---------|---------|
B|---------|---5-6-6-|-6-8-5-5-|---------|
G|---5-7-7-|-7-------|---------|--7-5-7--|
D|-7-------|---------|---------|---------|
A|---------|---------|---------|---------|
E|---------|---------|---------|---------|

E|---------|---------|---5-6-6-|-5-3-5---|
B|---------|---5-8-8-|-8-------|-------3-|
G|---5-7-7-|-7-------|---------|---------|
D|-7-------|---------|---------|---------|
A|---------|---------|---------|---------|
E|---------|---------|---------|---------|

E|---------|----5----|---------|---------|
B|-----6-6-|--7------|---6-5-5-|--6---5--|
G|-5-7-----|------7--|-8-------|----7----|
D|---------|---------|---------|---------|
A|---------|---------|---------|---------|
E|---------|---------|---------|---------|


[Interlude] 

(0.37-0.43)
E|------------|-5-------|-6-------|--------|
B|------5-6-8-|---6-3---|---6-3---|--------|
G|--7-7-------|-------2-|-------3-|--2-3-2-|
D|------------|---------|---------|--------|
A|------------|---------|---------|--------|
E|------------|---------|---------|--------|

(0.43-0.50)
E|-5-5-5-6-5-|-3-3-3-3-5--|-5-5-5-6-5-|---------|
B|-----------|------------|-----------|-6-6-5-3-|
G|-----------|------------|-----------|---------|
D|-----------|------------|-----------|---------|
A|-----------|------------|-----------|---------|
E|-----------|------------|-----------|---------|


[Solo] 

(0.50-1.34)
E|-------|---5---|-------|---5---|---------|--------|--------|--------|
B|---5-6-|-8---8-|-6-5-6-|-8---8-|----8-10-|-10-8---|--------|--------|
G|-7-----|-------|-------|-------|-10------|------9-|-10-9-7-|-9----7-|
D|-------|-------|-------|-------|---------|--------|--------|---10---|
A|-------|-------|-------|-------|---------|--------|--------|--------|
E|-------|-------|-------|-------|---------|--------|--------|--------|

E|-------|-------|-----5-|-------|---------|----5-6-|--------|--------|
B|---5-6-|-5-6-8-|-6-8---|-8-6---|----5-6--|--8-----|---8-6--|-8-5-3--|
G|-7-----|-------|-------|-----7-|--7------|--------|-7------|--------|
D|-------|-------|-------|-------|---------|--------|--------|--------|
A|-------|-------|-------|-------|---------|--------|--------|--------|
E|-------|-------|-------|-------|---------|--------|--------|--------|

E|-----5-6-5-5-5-5-3-|-3-----------|
B|-5-----------------|---6-5-6-5-3-|
G|---5---------------|-------------|
D|-------------------|-------------|
A|-------------------|-------------|
E|-------------------|-------------|

E|-----5-6-5-5-8-5-3-|-3-----------|
B|-------------------|---6-5-6-5-3-|
G|-------------------|-------------|
D|-------------------|-------------|
A|-------------------|-------------|
E|-------------------|-------------|

E|-------5-------6-------5-5-8-5-3-|-3-----------|
B|-3-5-6---3-5-6---3-5-6-----------|---6-5-6-5-3-|
G|---------------------------------|-------------|
D|---------------------------------|-------------| 
A|---------------------------------|-------------|
E|---------------------------------|-------------|(x2)
Suggest correction
comments
print report bad tab
34 comments total. Showing first comments.
0 reply
Undain 10 Dec 01, 2007 02:49 PM

sounds good 4/5

0 reply
josh3 10 Dec 24, 2007 04:30 PM

sounds good to me

0 reply
josh3 10 Dec 24, 2007 04:37 PM

u think u could help me out with where the bends r?

guest
You may want to rate the tab now too:
select rating
Wanna post a correction for this tab? Suggest correction