Oops, an error
Loading. Please wait.

Atlantis To Interzone Bass Tab

version 2
version 2

Whole song

Interactive

11,220 views 24 this week
6 commentsread comments
1 2 3 4 5
accurate
x 11
add to favorites
launch autoscroll
font size
0
reset
guitar tuner
Tab Pro tools
  • play this tab
  • loop segment
  • change instrument
  • show fretboard
  • metronome
×
Best way to learn
"Atlantis To Interzone"
Autoscroll
slow
fast
+/-
esc
set tempo
stop
Contributor
Difficulty
intermediate
Band: Klaxons
Song: Atlantis To Interzone
Tabber: David Havard

Listen for the timing in places

Intro x3
G|---------------------9----------------------|
D|----------------10-0---0------------5-------|
A|-12-12-12-12-12-----------8-8-8-8-8---0-7-0-|
E|--------------------------------------------|

Break Down x2
G|---------------------------|
D|---------------------------|
A|-11-11-11-11--10-10-10-10--|
E|---------------------------|

Verse x4
G|-----------------------------------------|
D|----------------10~----------------------|
A|-12-12-12-12-12------8-8-8-8-8-7-7-7-7-7-|
E|-----------------------------------------|

Intro x3

Break Down x4

Break

Chorus x8
G|---------------------------------------------------|
D|-8-----------8-------------------------------------|
A|---7-7-7-7-7---7-7-7-7-7-10-----------10-----------|
E|----------------------------7-7-7-7-7----7-7-7-7-7-|

Break Down x4

Intro x3

Break Down x2

Verse x4

Intro x3

Break Down x4

Break

Chorus x12

Break Down x4

End On
G|------|
D|------|
A|-11\--|
E|------|

Im pretty 100% on this, you just need to listen to the timing
comments
print report bad tab
6 comments total. Showing first comments.
0 reply
Fraz01 wrote on January 31 2007, 02:37 pm

sounds perfect to me :D

0 reply
bassist792 wrote on February 3 2007, 01:15 pm

im not sure to be honest i play it a different way but that still sounds good

0 reply
Fender-Kid wrote on July 6 2007, 03:37 pm

5 star that mate :]

I want to post or [tab]
guest
You may want to rate the tab now too:
select rating
Please do not post tabs as comments. Select "correction" instead!