Oops, an error
Loading. Please wait.

Atlantis To Interzone bass

version 3
version 3

Whole song

Interactive

by Klaxons
1,340 views 1 this week
1 commentread comment
1 2 3 4 5
x 3
add to favorites
×
Save as Personal and add changes to this tab that will be seen only by you. Learn more ›
×
You can save this tab as Personal to edit and correct it or add notes. All changes will be seen only by you. Learn more »
launch autoscroll
font size
0
reset
guitar tuner
backing track
0:00
0:00
edit
Autoscroll
slow
fast
+/-
esc
set tempo
stop
Difficulty
intermediate
INTRO

(x3)

G|-------------------------------------------------------------------------|
D|--------------------0-14-0-----------------------------------------------|
A|-12-12-12-121212-15--------8-8-8-888-10-0-7-0----------------------------|
E|-------------------------------------------------------------------------|

After the last one play bridge...

G|-------------------------------------------------------------------------|
D|-------------------------------------------------------------------------|
A|-11-11-11-11-11-11-10-10-10-10-10-10-11-11-11-11-11-11-10-10-10-10-10-10-|
E|-------------------------------------------------------------------------|

Then again play...

(x3)

G|-------------------------------------------------------------------------|
D|--------------------0-14-0-----------------------------------------------|
A|-12-12-12-121212-15--------8-8-8-888-10-0-7-0----------------------------|
E|-------------------------------------------------------------------------|


After the last one again play bridge...

G|-------------------------------------------------------------------------|
D|-------------------------------------------------------------------------|
A|-11-11-11-11-11-11-10-10-10-10-10-10-11-11-11-11-11-11-10-10-10-10-10-10-|
E|-------------------------------------------------------------------------|

Then when jamie starts singing the verse play....

(x4)

G|-------------------|
D|-----10~~----------|
A|-12~~----8~~7~~----|      
E|-------------------|

The the for the pre chorus play....

(x3)

G|-------------------------------------------------------------------------|
D|--------------------0-14-0-----------------------------------------------|
A|-12-12-12-121212-15--------8-8-8-888-10-0-7-0----------------------------|
E|-------------------------------------------------------------------------|


After the last one play bridge...

G|-------------------------------------------------------------------------|
D|-------------------------------------------------------------------------|
A|-11-11-11-10-10-10-11-11-11-10-10-10-11-11-11-10-10-10-11-11-11-10-10-10-|
E|-------------------------------------------------------------------------|

Chorus (...."FROM ATLANTIS".....)

(x8)

G|------------------------|
D|-8----------------------|
A|---777777710------------|
E|-------------8888888----|

After that Play Bridge...


G|-------------------------------------------------------------------------|
D|-------------------------------------------------------------------------|
A|-11-11-11-10-10-10-11-11-11-10-10-10-11-11-11-10-10-10-11-11-11-10-10-10-|
E|-------------------------------------------------------------------------|

Then again play...

(x3)

G|-------------------------------------------------------------------------|
D|--------------------0-14-0-----------------------------------------------|
A|-12-12-12-121212-15--------8-8-8-888-10-0-7-0----------------------------|
E|-------------------------------------------------------------------------|


After the last one again play bridge...

G|-------------------------------------|
D|-------------------------------------|
A|-11-11-11-10-10-10-11-11-11-10-10-10-|
E|-------------------------------------|

Then when jamie starts singing the second verse play....

(x4)

G|-------------------|
D|-----10~~----------|
A|-12~~----8~~7~~----|      
E|-------------------|

Then play pre chorus again....

(x3)

G|-------------------------------------------------------------------------|
D|--------------------0-14-0-----------------------------------------------|
A|-12-12-12-121212-15--------8-8-8-888-10-0-7-0----------------------------|
E|-------------------------------------------------------------------------|


After the last one again play bridge...

G|-------------------------------------------------------------------------|
D|-------------------------------------------------------------------------|
A|-11-11-11-10-10-10-11-11-11-10-10-10-11-11-11-10-10-10-11-11-11-10-10-10-|
E|-------------------------------------------------------------------------|


Chorus (...."FROM ATLANTIS".....)

(x12)

G|------------------------|
D|-8----------------------|
A|---777777710------------|
E|-------------8888888----|

After that Play Bridge...


G|-------------------------------------------------------------------------|
D|-------------------------------------------------------------------------|
A|-11-11-11-10-10-10-11-11-11-10-10-10-11-11-11-10-10-10-11-11-11-10-10-10-|
E|-------------------------------------------------------------------------|

End on..

G|------|
D|------|
A|-11~~~|
E|------|





            
            
Suggest correction
Creating personal tab
Creating personal tab
You can edit any tab online and save it as your Personal.

You can edit, replace or remove any tab part or add personal notes – all changes will be seen only by you.

Personal tabs can be accessed anytime from any device, even offline.
Learn more »
Give kudos to tab author, rate the tab!
1 2 3 4 5
comments
print report bad tab
1 comment total.
0 reply
ben N his bass 51 Jul 05, 2007 06:58 AM

dunno bout the rest oif the song but the intro is sopot on and the other tba might be better but this is much easyer to play and sounds great!

guest
Wanna post a correction for this tab? Suggest correction