Oops, an error
Loading. Please wait.

Golden Skans Bass Tab

version 1
version 1

Whole song

Interactive

7,616 views 3 this week
2 commentsread comments
1 2 3 4 5
accurate
x 6
add to favorites
launch autoscroll
font size
0
reset
guitar tuner
Tab Pro tools
  • play this tab
  • loop segment
  • change instrument
  • show fretboard
  • metronome
×
Best way to learn
"Golden Skans"
Autoscroll
slow
fast
+/-
esc
set tempo
stop
Golden Skans – Klaxons

Myths Of The Near Future

Intro

G|-----------------------------------------------------|
D|-------------------------5----------7----------------|
A|--5---------3----------------------------------------|
E|-----------------------------------------------------|


Chorus – Light touched my hands…

G|-----------------------------------------------------------------------------------|
D|--------------------------------------------555555555----------777777777-----------|
A|--55555555---------333333333-------------------------------------------------------|
E|-----------------------------------------------------------------------------------|

Verse – Set sail from…

G|---------------------------7(hold)-----------7--------------5--|
D|----------------------------------------------5----7-----------|
A|--5---------3--------------------------------------------------|
E|-----5---------5-----------------------------------------------|

G|---------------------------7(hold)-----------7--------------5--55555---|
D|----------------------------------------------5----7-------------------|
A|--5---------3----------------------------------------------------------|
E|-----5---------5-------------------------------------------------------|


A Hall Of Records…

G|-----------------------------------------------------------------------------------|
D|--------------------------------------------555555555----------777777777-----------|
A|--55555555---------333333333-------------------------------------------------------|
E|-----------------------------------------------------------------------------------|

Chorus then…

 OOOOEEEOOOAAAAHH…
G|-----------------------------------------------------------------------------------|
D|-----------------------------------------------------------------------------------|
A|--55555555---------333333333-------------------------------------------------------|
E|-----------------------------------------33333333---------5555555------------------|
comments
print report bad tab
2 comments total.
0 reply
RaWk!! wrote on April 24 2007, 01:55 pm

next time try adding the amount of times you play the verses and stuff but anyway great tab it fits perfectly

0 reply
Overdrive_mania wrote on February 20 2008, 03:10 pm

well My version (version 3) is perfect this doesn't even fit in and it's not the right notes for quite alot of the time and you miss alot of the notes out...Sorry but it had to be said

I want to post or [tab]
guest
You may want to rate the tab now too:
select rating
Please do not post tabs as comments. Select "correction" instead!