Oops, an error
Loading. Please wait.
We have an official Gravitys Rainbow tab made by UG professional guitarists. Check out the tab »
×
by Klaxons
5,592 views 1 this week
1 commentread comment
1 2 3 4 5
x 16
add to favorites
×
Save as Personal and add changes to this tab that will be seen only by you. Learn more ›
×
You can save this tab as Personal to edit and correct it or add notes. All changes will be seen only by you. Learn more »
launch autoscroll
font size
0
reset
guitar tuner
edit
Autoscroll
slow
fast
+/-
esc
set tempo
stop
Author
Difficulty
-------------------------------------------------------------------------------
			     Gravity Rainbow - Klaxons
-------------------------------------------------------------------------------

Tabbed By : J.Liu
e-mail: theblochead@hotmail.co.uk

Tuning: Standard EADG

Intro
G|--------------------------|-------------------------|
D|--------------------------|-------------------------|
A|--------7-7-7-------6-6-6-|-------7-7-7-------6-6-6-|
E|6-8-8-8-------7-7-7-------|-8-8-8-------7-7-7-------|X2

Verse
'Come on with me through ruined LiPGLOCK...' 
G|-------------------------|-------------------------|
D|-------------------------|-------------------------|
A|-------7-7-7-------6-6-6-|-------7-7-7-------6-6-6-|
E|-8-8-8-------7-7-7-------|-8-8-8-------7-7-7-------|X2

Break
G|-------------------|
D|-------------------|
A|---------7-7-7-5-0-|
E|-8----7------------|X4


Verse
'All ships of sense on hyper ocean... ' 
G|-------------------------|-------------------------|
D|-------------------------|-------------------------|
A|-------7-7-7-------6-6-6-|-------7-7-7-------6-6-6-|
E|-8-8-8-------7-7-7-------|-8-8-8-------7-7-7-------|X2

Chorus
'Come with me > come with me >>> We'll travel to INFINITY...'
G|-12-12-12-12-12--------------|
D|----------------14----13-----|
A|--------------------------14-|
E|-----------------------------|X4

Post Chorus
G|-------------------------|-------------------------|
D|-------------------------|-------------------------|
A|-------7-7-7-------6-6-6-|-------7-7-7-------6-6-6-|
E|-8-8-8-------7-7-7-------|-8-8-8-------7-7-7-------|X4

Verse
'Your tears leave trails of TIK,VAN,LoofAutonoma...'
G|-------------------------|-------------------------|
D|-------------------------|-------------------------|
A|-------7-7-7-------6-6-6-|-------7-7-7-------6-6-6-|
E|-8-8-8-------7-7-7-------|-8-8-8-------7-7-7-------|X2

Chorus
'Come with me > come with me >>> We'll travel to INFINITY...'
G|-12-12-12-12-12--------------|
D|----------------14----13-----|
A|--------------------------14-|
E|-----------------------------|X4

'Come with me > come with me >>> We'll travel to INFINITY...'
G|---------------------------|
D|---------------------------|
A|--------------7-7-7--5-5-5-|
E|-8-8-8--7-7-7--------------|X8

Ends on C (Eighth fret E or 3rd fret A)

Cheers babe. Rate or hate.

J'aimes

| /  slide up
| \  slide down
| h  hammer-on
| p  pull-off
| ~  vibrato
| +  harmonic
| x  Mute note
===============================================================================

            
            
Suggest correction
Creating personal tab
Creating personal tab
You can edit any tab online and save it as your Personal.

You can edit, replace or remove any tab part or add personal notes – all changes will be seen only by you.

Personal tabs can be accessed anytime from any device, even offline.
Learn more »
comments
print report bad tab
1 comment total.
0 reply
mansell863 484 Aug 22, 2007 02:55 AM

thats rather gurd well done
=]

guest
You may want to rate the tab now too:
select rating
Wanna post a correction for this tab? Suggest correction