Oops, an error
Loading. Please wait.

Gravitys Rainbow Bass Tab

version 2
version 2

Whole song

Interactive

5,350 views 1 this week
1 commentread comment
1 2 3 4 5
accurate
x 3
add to favorites
launch autoscroll
font size
0
reset
guitar tuner
Tab Pro tools
  • play this tab
  • loop segment
  • change instrument
  • show fretboard
  • metronome
×
Best way to learn
"Gravitys Rainbow"
Autoscroll
slow
fast
+/-
esc
set tempo
stop
Contributor
Difficulty
intermediate
-------------------------------------------------------------------------------
			    Gravitys Rainbow - The Klaxons
-------------------------------------------------------------------------------

Tabbed By : Ollie taylor
e-mail: ollietaylor19@hotmail.com

Tuning:Standard


                       Intro
G|-------------------------------------------|
D|----------222-------111------222------111--|
A|-----333-------222-------333------222------|
E|-------------------------------------------|
                  Break
G|----------------------------------------|
D|----------------------------------------|
A|----3-2--5-77-5-0--------3-2--5-77-5-0--|
E|----------------------------------------|

                    Verse
G|-------------------------------------------|
D|----------222-------111------222------111--|
A|-----333-------222-------333------222------|
E|-------------------------------------------|
                          Break
G|-------------------------------------------------------------------------------------|
D|---55555-------22----0---------------------------------------------------------------|
A|---------------------2---------------------------------------------------------------|
E|-------------------------------------------------------------------------------------|

                          Verse
G|-------------------------------------------|
D|----------222-------111------222------111--|
A|-----333-------222-------333------222------|
E|-------------------------------------------|

                           Break
G|-------------------------------------------------------------------------------------|
D|---55555-------22----0---------------------------------------------------------------|
A|---------------------2---------------------------------------------------------------|
E|-------------------------------------------------------------------------------------|
                              Break
G|-------------------------------------------|
D|----------222-------111------222------111--|
A|-----333-------222-------333------222------|
E|-------------------------------------------|
                                Until the end
G|----------------------------------------|
D|----------------------------------------|
A|----3-2--5-77-5-0--------3-2--5-77-5-0--|
E|----------------------------------------|
comments
We did not receive enough feedback on this tab! Please rate:
print report bad tab
1 2 3 4 5
1 comment total.
0 reply
wakk94 wrote on April 19 2014, 04:31 pm

For the break it's a lot easier to play 0 and 2 on the D string than stretch all the way down the A string.

I want to post or [tab]
guest
You may want to rate the tab now too:
select rating
Please do not post tabs as comments. Select "correction" instead!