Oops, an error
Loading. Please wait.
We have an official Gravitys Rainbow tab made by UG professional guitarists. Check out the tab »
×
by Klaxons
9,022 views 1 this week
2 commentsread comments
1 2 3 4 5
x 4
add to favorites
×
Save as Personal and add changes to this tab that will be seen only by you. Learn more ›
×
You can save this tab as Personal to edit and correct it or add notes. All changes will be seen only by you. Learn more »
launch autoscroll
font size
0
reset
how to read this tab
guitar tuner
edit
Autoscroll
slow
fast
+/-
esc
set tempo
stop
Author
Difficulty
-------------------------------------------------------------------------------
                            Gravitys Rainbow - Klaxons
-------------------------------------------------------------------------------

This Is A Quite Accurate Tab For Gravitys Rainbow. Take A Look. 
Email Me With Questions
Read Key Below To Understand My Symbols Cause i Didnt Know The Proper Ones For 
Them All So I Made Ones up


Tabbed by: Jobo 

Email: Joboy2k@msn.com

Tuning: Standard E A D G B e

e|---------------------------------------------------------------------------|
B|---------------------------------------------------------------------------|
G|-5-5-5-5-4-4-4-4-------8-4--5-5-5-5-4-4-4-4----------5-5-5-----------------|
D|-5-5-5-5-4-4-4-4-2--11------5-5-5-5-4-4-4-4-2------------------------------|
A|-3-3-3-3-2-2-2-2------------3-3-3-3-2-2-2-2--------------------------------|
E|---------------------------------------------------------------------------|
   v ^ v ^ v ^ v ^            v ^ v ^ v ^ v ^



e|---------------------------------------------------------------------------|
B|---------------------------------------------------------------------------|
G|-5-5-5-5-4-4-4-4-------8-4--5-5-5-5-4-4-4-4--------8-5-5-5-----------------|
D|-5-5-5-5-4-4-4-4-2--11------5-5-5-5-4-4-4-4-2--11--------------------------|
A|-3-3-3-3-2-2-2-2------------3-3-3-3-2-2-2-2--------------------------------|
E|---------------------------------------------------------------------------|
   v ^ v ^ v ^ v ^            v ^ v ^ v ^ v ^

\\\\\\\
\Break\
\With\\
\Piano\
\\\\\\\

On This Part He Makes Sound Effects But I Cant Pin Point What He Does so
I Just Do What Ever On The Guitar On About The 17 18 19 Frets on G B and e strings.
theres this thing i use, I cant remeber what there called but you put them on your index finger with your
fret hand and you use it to slide, well i use that to slide around about there and 
it makes some good noises if you get it right.

e|-----------------------------------------------------19/0------------------|
B|-----------------------------------------------------18/0------------------|
G|-5-5-5-5-4-4-4-4-------8-4--5-5-5-5-4-4-4-4----------17/0------------------|
D|-5-5-5-5-4-4-4-4-2--11------5-5-5-5-4-4-4-4-2--11--------------------------|
A|-3-3-3-3-2-2-2-2------------3-3-3-3-2-2-2-2--------------------------------|
E|---------------------------------------------------------------------------|
   v ^ v ^ v ^ v ^            v ^ v ^ v ^ v ^




e|---------------------------------------------------------------------------|
B|---------------------------------------------------------------------------|
G|-5-5-5-5-4-4-4-4-------8-4--5-5-5-5-4-4-4-4--------8-5-5-5-----------------|
D|-5-5-5-5-4-4-4-4-2--11------5-5-5-5-4-4-4-4-2--11--------------------------|
A|-3-3-3-3-2-2-2-2------------3-3-3-3-2-2-2-2--------------------------------|
E|---------------------------------------------------------------------------|
   v ^ v ^ v ^ v ^            v ^ v ^ v ^ v ^


\\\\\\\
\Break\
\With\\
\Piano\
\\\\\\\



e|-----------------------------------------------------19/0------------------|
B|-----------------------------------------------------18/0------------------|
G|-5-5-5-5-4-4-4-4-------8-4--5-5-5-5-4-4-4-4----------17/0------------------|
D|-5-5-5-5-4-4-4-4-2--11------5-5-5-5-4-4-4-4-2--11--------------------------|
A|-3-3-3-3-2-2-2-2------------3-3-3-3-2-2-2-2--------------------------------|
E|---------------------------------------------------------------------------|
   v ^ v ^ v ^ v ^            v ^ v ^ v ^ v ^


e|-----------------------------------------------------19/0------------------|
B|-----------------------------------------------------18/0------------------|
G|-5-5-5-5-4-4-4-4-------b8---5-5-5-5-4-4-4-4----------17/0------------------|
D|-5-5-5-5-4-4-4-4-2--11------5-5-5-5-4-4-4-4-2--11--------------------------|
A|-3-3-3-3-2-2-2-2------------3-3-3-3-2-2-2-2--------------------------------|
E|---------------------------------------------------------------------------|
   v ^ v ^ v ^ v ^            v ^ v ^ v ^ v ^


\\\\\\\
\Break\
\With\\
\Bass\\
\\\\\\\


You Need To Listen For This Part. After He Says "the rubix groom hoom" You Do this
and just before he says "You'd slip through time but I won't let you"
Listen To It To See What I Mean

e|---------------------------------------------------------------------------|
B|---------------------------------------------------------------------------|
G|-5-5-5-5-4-4-4-4-----------------------------------------------------------|
D|-5-5-5-5-4-4-4-4-----------------------------------------------------------| X2
A|-3-3-3-3-2-2-2-2-----------------------------------------------------------|
E|---------------------------------------------------------------------------|
   v ^ v ^ v ^ v ^


e|---------------------------------------------------------------------------|
B|---------------------------------------------------------------------------|
G|-5-5-5-5-4-4-4-4-9-9-9-9-7-7-7-7-------------------------------------------|
D|-5-5-5-5-4-4-4-4-9-9-9-9-7-7-7-7-------------------------------------------| X4
A|-3-3-3-3-2-2-2-2-7-7-7-7-5-5-5-5-------------------------------------------|
E|---------------------------------------------------------------------------|
   v v v v v v v v v v v v v v v v

here what you do is strum this very fast up and down (2 times faster then normal)
but you still keep your hands there for as long as normal.

e|---------------------------------------------------------------------------|
B|---------------------------------------------------------------------------|
G|-5-5-5-5-5-5-5-5-4-4-4-4-4-4-4-4-9-9-9-9-9-9-9-9-7-7-7-7-7-7-7-7-----------|
D|---------------------------------------------------------------------------| X4
A|-3-3-3-3-3-3-3-3-2-2-2-2-2-2-2-2-7-7-7-7-7-7-7-7-5-5-5-5-5-5-5-5-----------|
E|---------------------------------------------------------------------------|
   ~ ~ ~ ~ ~ ~ ~ ~ ~ ~ ~ ~ ~ ~ ~ ~ ~ ~ ~ ~ ~ ~ ~ ~ ~ ~ ~ ~ ~ ~ ~ ~
   v ^ v ^ v ^ v ^ v ^ v ^ v ^ v ^ v ^ v ^ v ^ v ^ v ^ v ^ v ^ v ^


e|---------------------------------------------------------------------------|
B|-13-13-13-13-------------17-17-17-17-15-15-15-15---------------------------|
G|-------------16-16-16-16---------------------------------------------------|
D|---------------------------------------------------------------------------| X4
A|---------------------------------------------------------------------------|
E|---------------------------------------------------------------------------|
   ~ ~ ~ ~ ~ ~ ~ ~ ~ ~ ~ ~ ~ ~ ~ ~ ~ ~ ~ ~ ~ ~ ~ ~
   v v v v v v v v v v v v v v v v v v v v v v v v

IF THERES SOMETHINK YOU DONT UNDERSTAND JUST GIVE ME AN EMAIL WITH "GRAVITYS TABS" 
AS THE SUBJECT OF THE EMAIL AND SHOOT WITH ANY OF THE QUESTIONS YOU HAVE.




| b  Bend
| ^  Strum Up
| v  Strum Down
| /  slide up
| \  slide down
| h  hammer-on
| p  pull-off
| ~  Strum Really Fast (Only For As Long As It Does Normally Though)
| +  harmonic
| x  Mute note
===============================================================================

            
            
Suggest correction
Creating personal tab
Creating personal tab
You can edit any tab online and save it as your Personal.

You can edit, replace or remove any tab part or add personal notes – all changes will be seen only by you.

Personal tabs can be accessed anytime from any device, even offline.
Learn more »
comments
print report bad tab
2 comments total.
0 reply
HeavyReverb 112 Jul 31, 2008 07:05 AM

the thing you use to slide is a slide lol

+1 reply
joboy2k 52 Aug 22, 2008 03:30 PM

:) thanks mate.

guest
You may want to rate the tab now too:
select rating
Wanna post a correction for this tab? Suggest correction