Oops, an error
Loading. Please wait.

Its Not Over Yet Tab

version 2
version 2

Whole song

Interactive

6,246 views 3 this week
3 commentsread comments
1 2 3 4 5
accurate
x 6
add to favorites
launch autoscroll
font size
0
reset
how to read this tab
guitar tuner
Tab Pro tools
  • play this tab
  • loop segment
  • change instrument
  • show fretboard
  • metronome
Autoscroll
slow
fast
+/-
esc
set tempo
stop
Difficulty
novice
-------------------------------------------------------------------------------
                             ITS NOT OVER YET - The Klaxons
-------------------------------------------------------------------------------
Tabbed by: Mike Frangleton

Tuning: Standard

| x  Mute note


Intro
1st guitar
e|-------17-14-16---------17-14-16------17-14-16-------17-14-16--------|
B|----------------14-14-----------14-14----------14-14----------14-14--|
G|---------------------------------------------------------------------|
D|---------------------------------------------------------------------|
A|---------------------------------------------------------------------|
E|---------------------------------------------------------------------|
2nd guitar
e|------------------------------------------------------|
B|------------------------------------------------------|
G|------------------------------------------------------|
D|--777777777777777777777777777777777-------------------|
A|--xxxxxxxxxxxxxxxxxxxxxxxxxxxxxxxxx-------------------|
E|--555555555555555555555555555555555-------------------|


1st verse
e|------------------------------------------------------|
B|------------------------------------------------------|
G|------------------------------------------------------|
D|--7-4-11-------------7-4-11---------------------------|
A|--x-x-x---let ring---x-x-x----------------------------|
E|--5-2-9--------------5-2-9----------------------------|

The pre chorus and chorus is the same:
1st guitar
e|-------17-14-16---------17-14-16------17-14-16-------17-14-16--------|
B|----------------14-14-----------14-14----------14-14----------14-14--|
G|---------------------------------------------------------------------|
D|---------------------------------------------------------------------|
A|---------------------------------------------------------------------|
E|---------------------------------------------------------------------|

2nd guitar
e|------------------------------------------------------|
B|------------------------------------------------------|
G|------------------------------------------------------|
D|--77777777-44444444-11111111111111--------------------|
A|--xxxxxxxx-xxxxxxxx-x-x-x-x-x-x-x---------------------|
E|--55555555-22222222-9-9-9-9-9-9-9---------------------|


2nd verse
e|------------------------------------------------------|
B|------------------------------------------------------|
G|------------------------------------------------------|
D|--7---11-------------7---11---------------------------|
A|--x---x---let ring---x---x---let ring-----------------|
E|--5---9--------------5---9----------------------------|

e|------------------------------------------------------|
B|------------------------------------------------------|
G|------------------------------------------------------|
D|--7-4-11-------------7-4-11---------------------------|
A|--x-x-x---let ring---x-x-x---let ring-----------------|
E|--5-2-9--------------5-2-9----------------------------|

pre chorus then chorus

1st guitar
e|-------17-14-16---------17-14-16------17-14-16-------17-14-16--------|
B|----------------14-14-----------14-14----------14-14----------14-14--|
G|---------------------------------------------------------------------|
D|---------------------------------------------------------------------|
A|---------------------------------------------------------------------|
E|---------------------------------------------------------------------|

2nd guitar
e|------------------------------------------------------|
B|------------------------------------------------------|
G|------------------------------------------------------|
D|--77777777-44444444-11111111111111--------------------|
A|--xxxxxxxx-xxxxxxxx-x-x-x-x-x-x-x---------------------|
E|--55555555-22222222-9-9-9-9-9-9-9---------------------|


break
e|---------------------------------------------------------------------|
B|-1414141414-17-------------------------------------------------------|
G|---------------141414141414-131313131313131313-----------------------|
D|---------------------------------------------------------------------|
A|---------------------------------------------------------------------|
E|---------------------------------------------------------------------|

e|---------------------------------------------------------------------|
B|-17-1414141414-17----------------------------------------------------|
G|------------------141414141414-131313131313131313--------------------|
D|---------------------------------------------------------------------|
A|---------------------------------------------------------------------|
E|---------------------------------------------------------------------|

e|-------17-14-16---------17-14-16------17-14-16-------17-14-16--------|
B|----------------14-14-----------14-14----------14-14----------14-14--|
G|---------------------------------------------------------------------|
D|---------------------------------------------------------------------|
A|---------------------------------------------------------------------|
E|---------------------------------------------------------------------|

chorus
1st guitar
e|-------17-14-16---------17-14-16------17-14-16-------17-14-16--------|
B|----------------14-14-----------14-14----------14-14----------14-14--|
G|---------------------------------------------------------------------|
D|---------------------------------------------------------------------|
A|---------------------------------------------------------------------|
E|---------------------------------------------------------------------|

2nd guitar
e|------------------------------------------------------|
B|------------------------------------------------------|
G|------------------------------------------------------|
D|--77777777-44444444-11111111111111--------------------|
A|--xxxxxxxx-xxxxxxxx-x-x-x-x-x-x-x---------------------|
E|--55555555-22222222-9-9-9-9-9-9-9---------------------|



outro
e|---------------------------------------------------------------------|
B|-17-1414141414-------------------------------------------------------|
G|---------------14141414-13131313----x4-------------------------------|
D|---------------------------------------------------------------------|
A|---------------------------------------------------------------------|
E|---------------------------------------------------------------------|

e|---------------------------------------------------------------------|
B|-17-14-17-----17-14-17-----17-14-17-----17-14-17-----17-14--let ring-|
G|----------13-----------13-----------13-----------13------------------|
D|---------------------------------------------------------------------|
A|---------------------------------------------------------------------|
E|---------------------------------------------------------------------|



and thats it
comments
print report bad tab
3 comments total.
-1 reply
quellophant wrote on October 8 2007, 03:08 pm

Boooooo! :( BAD TAB FOOL!

0 reply
razorsharp192 wrote on December 10 2008, 09:33 am

not if you play it right! its perfect!!

0 reply
razorsharp192 wrote on December 10 2008, 09:43 am

not sure why mine's the ver2 either, i was the first person to upload a tab for this song...

I want to post or [tab]
guest
You may want to rate the tab now too:
select rating
Please do not post tabs as comments. Select "correction" instead!