Oops, an error
Loading. Please wait.
We have an official Magick tab made by UG professional guitarists. Check out the tab »
×
by Klaxons
7,305 views 6 this week
1 commentread comment
1 2 3 4 5
x 7
add to favorites
×
Save as Personal and add changes to this tab that will be seen only by you. Learn more ›
×
You can save this tab as Personal to edit and correct it or add notes. All changes will be seen only by you. Learn more »
launch autoscroll
font size
0
reset
how to read this tab
guitar tuner
edit
Autoscroll
slow
fast
+/-
esc
set tempo
stop
Difficulty
intermediate
----------------------------------------------------------------------------
                             SONG NAME - Band Name
----------------------------------------------------------------------------
Tabbed by:jamie carpenter white
Email:

Tuning:standard
intro & main riff
e|-------------|-----------------------------------|
B|-------------|-----------------------------------| repeat as many times
G|-------------|---------10------------------------|
D|-------------|--10-10----10--11---8----11--------|
A|-8 x 16------|-----------------------------------| as needed
E|-------------|-----------------------------------|

verse
e|--------------------------------------------------------------------------|
B|--------------------------------------------------------------------------|
G|--------------------------------------------------------------------------|
D|--------------------------------------------------------------------------|
A|---8-8-8-8-11-11-10-10-x 4-----------------11-11-10-10-x-4----------------|
E|------------------------------12-12-12-12---------------------------------|

chorus
e|--------------------------------------------------------------------------|
B|--------------------------------------------------------------------------|
G|----18~------17~-------15~------14~-----x2--------------------------------|
D|--------------------------------------------------------------------------|
A|--------------------------------------------------------------------------|
E|--------------------------------------------------------------------------|
pause
e|--------------------------------------------------------------------|
B|-------------------------------then--------18~-----------20~----19~-|
G|--------------------------------------------------------------------|
D|--------------------------------------------------------------------|
A|----------8---------------------------------------------------------|
E|-----8-8----8--9-6-9-x2---------------------------------------------|

this high pitched part repeats a few times under the main riff and then you got back to 
verse

the chorus is then repated several times, then you play the verse notes under the 
then back to the high pitched part a few times and you are done

| /  slide up
| \  slide down
| h  hammer-on
| p  pull-off
| ~  vibrato
| +  harmonic
| x  Mute note
===============================================================================

            
            
Suggest correction
Creating personal tab
Creating personal tab
You can edit any tab online and save it as your Personal.

You can edit, replace or remove any tab part or add personal notes – all changes will be seen only by you.

Personal tabs can be accessed anytime from any device, even offline.
Learn more »
comments
print report bad tab
1 comment total.
0 reply
ross123 148 Feb 24, 2012 06:28 AM

Theres this in the intro

e|--------------------------------------------------|
B|--------------------------------------------------|
G|--------------------------------------------------|
D|--------------------------------------------------|
A|-11p10h11p10 as many times as it happens----------|
E|--------------------------------------------------|

also i think chorus

e|---------------------------------------------------------|
B|---------------------------------------------------------|
G|---------------------------------------------------------|
D|---------------------------------------------------------|
A|----8---7----4----3-------------------------------------------------------------------------------------------------|

mess around with these notes
E|---------------------------------------------------------|

guest
Wanna post a correction for this tab? Suggest correction