Oops, an error
Loading. Please wait.

Virus Tab

22 views 1 this week
no commentswrite comment
1 2 3 4 5
3 more votes to show rating
add to favorites
launch autoscroll
font size
0
reset
how to read this tab
guitar tuner
Autoscroll
slow
fast
+/-
esc
set tempo
stop
Help us to improve Ultimate-Guitar.com Take our survey!
×
Author
Difficulty
Tuning
novice
D A D G B E
Intro/Chorus:
PM-------|       PM-------|
e|---------------------------------
B|---------------------------------
G|---------------------------------
D|---------6~~~~~~~--------6-3-3-6-
A|---------6~~~~~~~--------6-3-3-6-
D|-3-3-3-3-6~~~~~~~3-3-3-3-6-3-3-6-

PM-------|       PM-------|
e|---------------------------------
B|---------------------------------
G|---------------------------------
D|---------6~~~~~~~--------8-6-6-8-
A|---------6~~~~~~~--------8-6-6-8-
D|-6-6-6-6-6~~~~~~~8-8-8-8-8-6-6-8-

PM-------|       PM-------|
e|---------------------------------
B|---------------------------------
G|---------------------------------
D|---------6~~~~~~~--------6-3-3-6-
A|---------6~~~~~~~--------6-3-3-6-
D|-3-3-3-3-6~~~~~~~3-3-3-3-6-3-3-6-

PM-------|       PM-------|
e|---------------------------------
B|---------------------------------
G|---------------------------------
D|---------6~~~~~~~--------6-3-3-6-
A|---------6~~~~~~~--------6-3-3-6-
D|-3-3-3-3-6~~~~~~~3-3-3-3-6-3-3-6-

Verse:                              _
PM-------|       PM-------|          |
e|---------------------------------  |
B|---------------------------------  |
G|---------------------------------  |
D|---------6~~~~~~~--------6-3-3-6-  |
A|---------6~~~~~~~--------6-3-3-6-  |
D|-3-3-3-3-6~~~~~~~3-3-3-3-6-3-3-6-  |
                                     |-- × 4
PM-------|                           |
e|---------------------------------  |
B|---------------------------------  |
G|---------------------------------  |
D|---------4-3-1-4-3-1-4-3-1-4-3-1-  |
A|---------4-3-1-4-3-1-4-3-1-4-3-1-  |
D|-1-1-1-1-4-3-1-4-3-1-4-3-1-4-3-1- _|

e|---------------------------------
B|---------------------------------
G|---------------------------------
D|-1-3~~~1-3~~~1-3~~~1-3~~~--------
A|-1-3~~~1-3~~~1-3~~~1-3~~~--------
D|-1-3~~~1-3~~~1-3~~~1-3-3---------

Variation (after the second Verse)
e|---------------------------------
B|---------------------------------
G|---------------------------------
D|-1-3~~~1-3~~~1-3~~~1-3~~~1~~~3~~~
A|-1-3~~~1-3~~~1-3~~~1-3~~~1~~~3~~~
D|-1-3~~~1-3~~~1-3~~~1-3~~~1~~~3~~~
Suggest correction
Give kudos to tab author, rate the tab!
1 2 3 4 5
comments
print report bad tab
guest
You may want to rate the tab now too:
select rating
Wanna post a correction for this tab? Suggest correction