Oops, an error
Loading. Please wait.

Battle Sirens Tab

version 1
version 1

Whole song

187 views 42 this week
no commentswrite comment
1 2 3 4 5
2 more votes to show rating
add to favorites
launch autoscroll
font size
0
reset
how to read this tab
guitar tuner
Autoscroll
slow
fast
+/-
esc
set tempo
stop
Help us to improve Ultimate-Guitar.com Take our survey!
×
Author
Difficulty
novice
Tabs Knife Party & Tom Morello - Battle sirens 

[Intro]
Guitar Clean
e|---------------------------------------------------------------------------|
B|---------------------------------------------------------------------------|
G|---------------------------------------------------------------------------|
D|---5-4------------------5-4------------------------------------------------|
A|----------5--7----7b5----------5--7----------------------------------------|
E|-0-----0-------0------0-----0--------3--5--0-------------------------------|

e|---------------------------------------------------------------------------|
B|---------------------------------------------------------------------------|
G|---------------------------------------------------------------------------|
D|--5-4---------------5-4---7b5----------------------------------------------| 3x
A|--------5--7--7b5----------------------------------------------------------|
E|------0-----------0-----0-----3--5-----------------------------------------|

[Intro]
Guitar Distortion
e|---------------------------------------------------------------------------|
B|---------------------------------------------------------------------------|
G|---------------------------------------------------------------------------|
D|---5-4------------------5-4------------------------------------------------|
A|----------5--7----7b5----------5--7----------------------------------------|
E|-0-----0-------0------0-----0--------3--5--0-------------------------------|

e|---------------------------------------------------------------------------|
B|---------------------------------------------------------------------------|
G|---------------------------------------------------------------------------|
D|--5-4---------------5-4---7b5----------------------------------------------| 2x
A|--------5--7--7b5----------------------------------------------------------|
E|------0-----------0-----0-----3--5-----------------------------------------|

[Pre-Chorus]
e|---------------------------------------------------------------------------|
B|---------------------------------------------------------------------------|
G|---------------------------------------------------------------------------|
D|--2------------------------------------------------------------------------| 4x
A|--2--repeatedly------------------------------------------------------------|
E|--0--------------3--5h3----------------------------------------------------|

[Chorus]
e|---------------------------------------------------------------------------|
B|---------------------------------------------------------------------------|
G|---------------------------------------------------------------------------|
D|-------------------5-------------------------5-----------------------------|
A|----5--7---5h7-7-7---7-5------5--7---5h7-7-7---7--5~-----------------------|
E|--0------0---------------7--0------0---------------------------------------|

e|---------------------------------------------------------------------------|
B|---------------------------------------------------------------------------|
G|-----------------------------------------------(7)-------------------------|
D|-------------------5----------------------------7--------------------------|
A|----5--7---5h7-7-7---7-5------5--7---5h7-7-7-7--5--------------------------|
E|--0------0---------------7--0------0---------------------------------------|

e|---------------------------------------------------------------------------|
B|---------------------------------------------------------------------------|
G|---------------------------------------------------------------------------|
D|-------------------5-------------------------5-----------------------------|
A|----5--7---5h7-7-7---7-5------5--7---5h7-7-7---7--5~-----------------------|
E|--0------0---------------7--0------0---------------------------------------|

e|---------------------------------------------------------------------------|
B|---------------------------------------------------------------------------|
G|---------------------------------------------------------------------------|
D|---------------------------------------------------------------------------|
A|----5--7---5h7-7-7--5h7-7-7--5h7-7-7--5h7-7-7------------------------------|
E|--0------0-----------------------------------------------------------------|

[Drop]
e|---------------------------------------------------------------------------|
B|---------------------------------------------------------------------------|
G|------------------------14b-14b-14b-14b-(Full Bend)------------------------|
D|--2----------------------------------------------------------------9--7----|
A|--2-(Whenever there is Drop)---------------------------------------7--5----|
E|--0------------------------------------------------------------------------|

e|---------------------------------------------------------------------------|
B|---------------------------------------------------------------------------|
G|------------------------14b-14b-14b-14b-(Full Bend)------------------------|
D|--2-------------------------------------------------2-2------------9--7----|
A|--2-(Whenever there is Drop)------------------------2-2------------7--5----|
E|--0-------------------------------------------------0-0--0000-3333---------|

After that, just repeat,Enjoy yourself! Thanks !

************************************

| b    Bend
| h    Hammer-on
| ~    Vibrato
| (n)  Ghost note

************************************
Suggest correction
Give kudos to tab author, rate the tab!
1 2 3 4 5
comments
print report bad tab
guest
You may want to rate the tab now too:
select rating
Wanna post a correction for this tab? Suggest correction