Oops, an error
Loading. Please wait.

Dragon Pie tab

version 2
version 2

Whole song

Interactive

1,127 views 1 this week
12 commentsread comments
1 2 3 4 5
x 4
add to favorites
×
Save as Personal and add changes to this tab that will be seen only by you. Learn more ›
×
You can save this tab as Personal to edit and correct it or add notes. All changes will be seen only by you. Learn more »
launch autoscroll
font size
0
reset
how to read this tab
guitar tuner
edit
Autoscroll
slow
fast
+/-
esc
set tempo
stop
Knights of The Abyss: Dragonpie
Tabbed by: David Pole

Ya I know Knights of The Abyss so I'm right and you're wrong... End of story.

/ - SLIDE UP TO          h - HAMMER ON
\ - SLIDE DOWN TO        p - PULL OF
~ - VIBRATO              * - PALM MUTE
" - TREMOLO PICKING     <> - ARTIFICAL HARMONIC

Dropped C tuning
(C G C F A D)

Into: each note tremolo 4 times
|-------------------------------------------------|
|-------------------------------------------------|
|-------------------------------------------------|
|-------------------------------------------------| x4
|-"5-"8-"4-"7-"5-"8-"4-"7-"1-"4-"5-"7-"8-"7-"5-"4-|
|-------------------------------------------------|

Riff 1
|-------------------------------------------------|
|-------------------------------------------------|
|-------------------------------------------------|
|--------7---------------------7-8888777755557777-|
|-5h7-7p5-5-0000-00000000-5h7p5-5-----------------|
|-----------0000-00000000-------------------------|
            **** ********

Riff 1 cont.
|----------------------------------------------------------|
|----------------------------------------------------------|
|----------------------------------------------------------|
|--------7-------------------------------------------------|
|-5h7-7p5-5-0000-00000000-11114444555577778888777755554444-|
|-----------0000-00000000----------------------------------|
            **** ********                 Play Riff 1 twice

Riff 2
|--------------------------------------------|
|--------------------------------------------|
|-------------------------------------6h7----|
|----------------------------------------7h8-|
|-5h8--4h7----5h8-4h7--5h8--4h7----5h8-------|
|----00---0000-------00---00---0000----------|
     **   ****       **   **   ****

Riff 2 cont.
|--------------------------------------------|-|
|--------------------------------------------|-|
|-----------------------------------------6h7|-|
|--------------------------------------7h8---|-|
|-5h8--4h7----5h8-4h7--5h8--4h7----5h8-------|0|
|----00---0000-------00---00---0000----------|0|
     **   ****       **   **   ****           *            
                 Play Riff 2 twice and end on ^

Breakdown 1
|--------------------------------------------------------------|
|--------------------------------------------------------------|
|--------------------------------------------------------6h7---|
|-----------------------------------------------------------7h8|
|-5h8-000-4h7-000-000-5h8-4h7-000-5h8-000-4h7-000-000-5h8------|
|-----000-----000-000---------000-----000-----000-000----------|
      ***     *** ***         ***     ***     *** ***

Breakdown 1 cont.
|--------------------------------------------------------------|
|--------------------------------------------------------------|
|-----------------------------------------------------------6h7|
|--------------------------------------------------------7h8---|
|-5h8-000-4h7-000-000-5h8-4h7-000-5h8-000-4h7-000-000-5h8------|
|-----000-----000-000---------000-----000-----000-000----------|
      ***     *** ***         ***     ***     *** ***

Breakdown 1 cont.
|--------------------------------------------------------------|
|--------------------------------------------------------------|
|--------------------------------------------------------6h7---|
|-----------------------------------------------------------7h8|
|-5h8-000-4h7-000-000-5h8-4h7-000-5h8-000-4h7-000-000-5h8------|
|-----000-----000-000---------000-----000-----000-000----------|
      ***     *** ***         ***     ***     *** ***

Breakdown 1 cont.
|------------------------------------------------------------------|
|------------------------------------------------------------------|
|---------------------------------------------------------------6h7|
|------------------------------------------------------------7h8---|
|------000-----000-000----------000------000-----000-000-----------|
|-7h10-000-6h9-000-000-7h10-6h9-000-7h10-000-6h9-000-000-7h10------|
       ***     *** ***          ***      ***     *** ***

Riff 3
|------------------------------------------|
|------------------------------------------|
|------------------------------------------|
|------------------------------------------| x4
|-5--5--5-5-5-7-7-8--8--8h10p8-7--7--7h8p7-|
|--00-00-0-0-0-0-0-00-00--------00-00------|
   ** ** * * * * * ** **        ** **

Riff 4
|-------------------------------------------|
|-------------------------------------------|
|-------------------------------------------|
|-------------------------------------------|
|-"5-"5-"7-"8-"8-"10-"8-"10-"12-"13-"12-"10-|
|-------------------------------------------|

Riff 4 cont.
|------------------|
|------------------|
|------------------|
|-"12-"11-"8-"5-"7-|
|------------------|
|------------------|

Riff 4 cont.
|-------------------------------------------|
|-------------------------------------------|
|-------------------------------------------|
|-"5-"5-"7-"8-"8-"10-"8-"10-"12-"13-"12-"10-|
|-------------------------------------------|
|-------------------------------------------|

Riff 4 cont.
|------------------|
|------------------|
|-"12-"11-"8-"5-"7-|
|------------------|
|------------------|
|------------------|

Fill
|---------------|
|---------------|
|---------------|
|---------------|
|-0-0-------0-0-|
|-0-0-00-00-0-0-|
  * * ** ** * *

Breakdown 2
|-------------------------------------------------|
|-------------------------------------------------|
|-------------------------------------------------|
|-------------------------------------------------| x3
|-0-0-00-00-----------------------0-0-00-00-0-0-0-|
|-0-0-00-00-"5-"3-"2-"5-"6-"5-5p0-0-0-00-00-0-0-0-|
  * * ** **                       * * ** ** * * *

|----------------------------------------------------------------|
|----------------------------------------------------------------|
|----------------------------------------------------------------|
|----------------------------------------------------------------|
|-0-0-00-00-----------------------0-8-7-3-0320-0653-0320-----<4>-|
|-0-0-00-00-"5-"3-"2-"5-"6-"5-5p0-0-8-7-3-0320-0653-0320-3h4p3---|
  * * ** **                       * * * * **** **** ****

Riff 5
|--------------------------------------------------|
|--------------------------------------------------|
|------------------------------------------0h3h6p3-|
|-------------------------------------0h3h6--------|
|-0320-0532-0320---<4>-0320-0653-0h3h6-------------|
|-0320-0532-0320-000---0320-0653-------------------|
  **** **** **** ***   **** ****

Riff 5 cont.
|--------------------------------------------------------|
|--------------------------------------------------------|
|------------------------------------------0h3h6---------|
|------------------<3>----------------0h3h6------0h3h6---|
|-0320-0532-0320-------0320-0653-0h3h6-----------------0-|
|-0320-0532-0320-000---0320-0653-----------------------0-|
  **** **** **** ***   **** ****                       *

Outro
|----------------------------------------|
|--------------------------------------5-|
|---------------------------------0h3h6--|
|----------------------------0h3h6-------|
|-0-3-2-0-0-6-5-0-3-2-0-0h3h6------------|
|-0-3-2-0-0-6-5-0-3-2-0------------------|
  * * * * * * * * * * *

Outro cont.
Outro
|----------------------------------------------------|
|-----------------------6p3p0------------------------|
|----------------------------6p3p0-------------------|
|---------------------------------6p3p0--------------|
|-0-3-2-0-0-6-5-0-3-2-0----------------5-0320-0653-0-|
|-0-3-2-0-0-6-5-0-3-2-0------------------0320-0653-0-|
  * * * * * * * * * * *                  **** **** *



Fuck ya life, bitch.

            
            
Suggest correction
Creating personal tab
Creating personal tab
You can edit any tab online and save it as your Personal.

You can edit, replace or remove any tab part or add personal notes – all changes will be seen only by you.

Personal tabs can be accessed anytime from any device, even offline.
Learn more »
comments
print report bad tab
12 comments total. Showing first comments.
+1 reply
bassss 10 Dec 10, 2006 08:07 AM

sorry man but yes, you too are also tone deaf...try playing along with the song so you can get the right note!!!

0 reply
SaddamHuDavid 31 Dec 11, 2006 01:33 PM

Are you in drop D or Drop C tuning?

0 reply
ConquerorWyrm 10 Feb 04, 2007 08:27 PM

this tab is...really wrong

guest
You may want to rate the tab now too:
select rating
Wanna post a correction for this tab? Suggest correction