Oops, an error
Loading. Please wait.

Filmriss chords

418 views 18 this week
no commentswrite comment
1 2 3 4 5
3 more votes to show rating
add to favorites
×
Save as Personal and add changes to this tab that will be seen only by you. Learn more ›
×
You can save this tab as Personal to edit and correct it or add notes. All changes will be seen only by you. Learn more »
launch autoscroll
font size
0
reset
transpose
0
reset
display chords
guitar tuner
edit
Autoscroll
slow
fast
+/-
esc
set tempo
stop
Author
Difficulty
Strumming
There is no strumming pattern for this song yet. and get +5 IQ
'Filmriss'
by Knochenfabrik
from 'Ameisenstaat' (1997)

[Intro]
   B               G               A
e|--------------------------------------------------------|
B|--------------------------------------------------------|
G|---4---6-----7---------6-----7---------6-----7---9-7-6--|     
D|-4---4-----5-------5-------5-------7-------5-----7-7-7--|
A|-----------------5---5-----------7---7------------------|
E|--------------------------------------------------------|
   B               G                A                                    (Let ring)
e|----------------------------------------------------------------|
B|----------------------------------------------------------------|
G|---4---6-----7-----7---9---11-11--9---9-9-9-9-9-9---------------|
D|-4---4-----5-----7---7-----9--9---7---7-7-7-7-7-7---------------|
A|----------------------------------------------------4---5---7---|
E|----------------------------------------------------------------|

[Verse]
    B                             A
Wir hatten uns nicht vorgenommen, jemals auf die Welt zu kommen
    G                            D
und trotzdem ist es irgendwie passiert
    B                                         A
Als wir uns schließlich selbst erkannten, und alles ziemlich scheiße fanden
G                           D
hatten wir das wichtigste kapiert

[Chorus]
       B              G               D               A
Denn solange wir noch kriechen können geht noch einer rein
    E               G              D
wir trinken uns den Schädelknochen leer
        B              G              D             A
Denn so hohl wie unser Leergut wollen wir für immer sein,
      E            G                      D
alles andere intressiert uns längst nicht mehr

[Bridge]
  C                               B
Kaputt gesoffen gibt es nicht, es gibt nur nüchtern oder nicht
    A           C             G         D
mit Alkohol ist jeder Tag ein Fest

[Intro repeat]
   B               G               A
e|--------------------------------------------------------|
B|--------------------------------------------------------|
G|---4---6-----7---------6-----7---------6-----7---9-7-6--|     
D|-4---4-----5-------5-------5-------7-------5-----7-7-7--|
A|-----------------5---5-----------7---7------------------|
E|--------------------------------------------------------|
   B               G                A                                    (Let ring)
e|----------------------------------------------------------------|
B|----------------------------------------------------------------|
G|---4---6-----7-----7---9---11-11--9---9-9-9-9-9-9---------------|
D|-4---4-----5-----7---7-----9--9---7---7-7-7-7-7-7---------------|
A|----------------------------------------------------4---5---7---|
E|----------------------------------------------------------------|

[Verse]
B                            A
Besoffen in der Ecke liegen, nichts mehr auf die Reihe kriegen
   G                              D
so scheißen wir gemeinsam auf die Welt

B                                     A                         
Schmerzen mit Promill vertreiben, für immer stockbesoffen bleiben
    G                              D
der nächste Kasten ist schon kaltgestellt

[Chorus]
      B          G                 D               A
Einem Körper der gesund ist, dem genügt ein leerer Geist
    E               G         D
Wir trinken bis der Alkohol gewinnt
     B               G                    D                A
Auch wenn wir nur Statisten sind in einem Film der ständig reißt
    E            G            D
Wir halten unsre Fahne in den Wind

[Outro]
   B               G               A
e|-------------------------------------|
B|-------------------------------------|
G|---4---6-----7---------6-----7-------|
D|-4---4-----5-------5-------5-----7---|
A|-----------------5---5-----------7---|
E|-------------------------------------|
                   |slower
Suggest correction
Creating personal tab
Creating personal tab
You can edit any tab online and save it as your Personal.

You can edit, replace or remove any tab part or add personal notes – all changes will be seen only by you.

Personal tabs can be accessed anytime from any device, even offline.
Learn more »
Give kudos to tab author, rate the tab!
1 2 3 4 5
comments
print report bad tab
guest
You may want to rate the tab now too:
select rating
Wanna post a correction for this tab? Suggest correction