Oops, an error
Loading. Please wait.

Counting Worms Tab

version 1
version 1

Whole song

Interactive

160 views 81 this week
no commentswrite comment
1 2 3 4 5
2 more votes to show rating
add to favorites
launch autoscroll
font size
0
reset
how to read this tab
guitar tuner
Autoscroll
slow
fast
+/-
esc
set tempo
stop
Help us to improve Ultimate-Guitar.com Take our survey!
×
Author
Difficulty
novice
Knocked Loose
Counting Worms
Laugh Tracks (2016)
Tuning: Drop G (GDGCFAD)


Intro - Drums and Bass + Effects (0:00-0:25)


0:26                                       OWH! OWH!
      PM   PM   PM   PM   PM  PM  PM                     PM PM PM PM PM PM PM PM
D||----------------------------------------------------|--------------------------|
A||----------------------------------------------------|--------------------------|
F||----------------------------------------------------|--------------------------|
C||----------------------------------------------------|--------------------------|
G||----------------------------------------------------|--------------------------|
D||----0----0----0----0----0---0---0-------------------|--2--1--2--3--2--1--2--1--|
G||----0----0----0----0----0---0---0-------------------|--2--1--2--3--2--1--2--1--|


   PM PM PM PM PM PM PM       PM PM PM PM PM PM PM PM    PM PM PM PM PM PM PM      COUNTING WORMS!
D||--------------------------|--------------------------|--------------------------|------------------|
A||--------------------------|--------------------------|--------------------------|------------------|
F||--------------------------|--------------------------|--------------------------|------------------|
C||--------------------------|--------------------------|--------------------------|------------------|
G||--------------------------|--------------------------|--------------------------|------------------|
D||--2--3--2--1--2--3--2--1--|--2--1--2--3--2--1--2--1--|--2--3--2--1--2--3--2--1--|------------------|
G||--2--3--2--1--2--3--2--1--|--2--1--2--3--2--1--2--1--|--2--3--2--1--2--3--2--1--|------------------|


   PM PM PM PM PM PM PM PM    PM PM PM PM PM PM PM       PM PM PM PM PM PM PM PM
D||--------------------------|--------------------------|--------------------------|
A||--------------------------|--------------------------|--------------------------|
F||--------------------------|--------------------------|--------------------------|
C||--------------------------|--------------------------|--------------------------|
G||--------------------------|--------------------------|--------------------------|
D||--2--1--2--3--2--1--2--1--|--2--3--2--1--2--3--2--1--|--2--1--2--3--2--1--2--1--|
G||--2--1--2--3--2--1--2--1--|--2--3--2--1--2--3--2--1--|--2--1--2--3--2--1--2--1--|


   PM PM PM PM PM PM PM PM
D||--------------------------|-------------------||
A||--------------------------|-------------------||
F||--------------------------|-------------------||
C||--------------------------|-------------------||
G||--------------------------|-------------------||
D||--2--3--2--1--2--3--2--1--|--0----------------||
G||--2--3--2--1--2--3--2--1--|--0----------------||
Suggest correction
Give kudos to tab author, rate the tab!
1 2 3 4 5
comments
print report bad tab
guest
You may want to rate the tab now too:
select rating
Wanna post a correction for this tab? Suggest correction