Oops, an error
Loading. Please wait.

My Heroes Tab

version 1
version 1

Whole song

Interactive

67 views 9 this week
no commentswrite comment
1 2 3 4 5
2 more votes to show rating
add to favorites
launch autoscroll
font size
0
reset
how to read this tab
guitar tuner
Autoscroll
slow
fast
+/-
esc
set tempo
stop
Help us to improve Ultimate-Guitar.com Take our survey!
×
Author
Difficulty
novice



0:12             PM PM                   
D||--------------------------|
A||--------------------------|
F||--------------------------|
C||--------------------------|
G||--------------------------|
D||--------------0--0--------|
G||--------------0--0--------|



Intro  
D||----------------------|-----------------------|----------------------|-----------------------|
A||----------------------|-----------------------|----------------------|-----------------------|
F||----------------------|-----------------------|----------------------|-----------------------|
C||----------------------|-----------------------|----------------------|-----------------------|
G||----------------------|-----------------------|----------------------|-----------------------|
D||----------------------|-----------------------|----------------------|-----------------------|
G||--0------0--8----7----|--3--4--3----6----1----|--0------0--8----7----|--3--4--3----6----1----|



Verse 2 
    PM      PM PM   PM      PM PM PM   PM   PM      PM      PM PM   PM      PM PM PM   PM   PM        
D||-----------------------|-----------------------|-----------------------|-----------------------|
A||-----------------------|-----------------------|-----------------------|-----------------------|
F||-----------------------|-----------------------|-----------------------|-----------------------|
C||-----------------------|-----------------------|-----------------------|-----------------------|
G||-----------------------|-----------------------|-----------------------|-----------------------|
D||--0----L--0--8----7----|--3--4--3----6----1----|--0----L--0--8----7----|--3--4--3----6----1----|
G||--0----L--0--8----7----|--3--4--3----6----1----|--0----L--0--8----7----|--3--4--3----6----1----|



Breakdown 1
    PM PM PM    PM PM PM       PM PM PM    PM PM         PM PM PM    PM PM PM       
D||--------------------------|-------------------------|--------------------------|
A||--------------------------|-------------------------|--------------------------|
F||--------------------------|-------------------------|--------------------------|
C||--------------------------|-------------------------|--------------------------|
G||--------------------------|-------------------------|--------------------------|
D||--0--0--0-----0--0--0-----|--0--0--0-----0--0--1----|--0--0--0-----0--0--0-----|
G||--0--0--0-----0--0--0-----|--0--0--0-----0--0--1----|--0--0--0-----0--0--0-----|

    PM PM PM    PM PM                                                                      
D||-------------------------|--------------------------|------------------------------|
A||-------------------------|--------------------------|------------------------------|
F||-------------------------|--------------------------|------------------------------|
C||-------------------------|--------8--7--------------|--------8--7------------------|
G||-------------------------|--------------------8--7--|--------------------<>(3)~----|
D||--0--0--0-----0--0--1----|--------------------------|------------------------------|
G||--0--0--0-----0--0--1----|--0--0--------0--0--------|--0--0--------0--0------------|

                                                              PM PM PM    PM PM PM     
D||--------------------------|------------------------------|--------------------------|
A||--------------------------|------------------------------|--------------------------|
F||--------------------------|------------------------------|--------------------------|
C||--------8--7--------------|--------8--7------------------|--------------------------|
G||-------------------8--7--|---------------------<>(3)~----|--------------------------|
D||--------------------------|------------------------------|--0--0--0-----0--0--0-----|
G||--0--0--------0--0--------|--0--0--------0--0------------|--0--0--0-----0--0--0-----|


    PM PM PM    PM PM         PM PM PM    PM PM PM       PM PM PM    PM PM                           
D||-------------------------|--------------------------|-------------------------|-------|
A||-------------------------|--------------------------|-------------------------|-------|
F||-------------------------|--------------------------|-------------------------|-------|
C||-------------------------|--------------------------|-------------------------|-------|
G||-------------------------|--------------------------|-------------------------|-------|
D||--0--0--0-----0--0--1----|--0--0--0-----0--0--0-----|--0--0--0-----0--0--1----|-------|
G||--0--0--0-----0--0--1----|--0--0--0-----0--0--0-----|--0--0--0-----0--0--1----|-------|



VERSE 2 
    PM PM                             PM PM           PM PM                             PM PM           
D||-----------------------|-------------------------|-----------------------|-----------------------|
A||-----------------------|-------------------------|-----------------------|-----------------------|
F||-----------------------|-------------------------|-----------------------|-----------------------|
C||-----------------------|-------------------------|-----------------------|-----------------------|
G||-----------------------|-------------------------|-----------------------|-----------------------|
D||--0--0--6----5---------|------------0--0--1s--4--|--0--0--6----5---------|------------0--0--1----|
G||--0--0------------8----|--7----6----0--0--1s--4--|--0--0------------8----|--7----6----0--0--1----|


    PM PM                             PM PM           PM PM                             PM PM          
D||-----------------------|-------------------------|-----------------------|-------------------------|
A||-----------------------|-------------------------|-----------------------|-------------------------|
F||-----------------------|-------------------------|-----------------------|-------------------------|
C||--------8----7---------|-------------------------|--------8----7---------|-------------------------|
G||------------------8----|--7----6-----------------|------------------8----|--7----6-----------------|
D||--0--0-----------------|------------0--0--1s--4--|--0--0-----------------|------------0--0--1s--4--|
G||--0--0-----------------|------------0--0--1s--4--|--0--0-----------------|------------0--0--1s--4--|

                                                         
D||----------------------|-----------------------|
A||----------------------|-----------------------|
F||----------------------|-----------------------|
C||--8----7--------------|-------8---------------|
G||------------8----7----|--6---------5--4--3----|
D||----------------------|-----------------------|
G||----------------------|-----------------------|



BREAKDOWN 2
    PM PM PM    PM PM PM       PM PM PM    PM PM           
D||--------------------------|-------------------------|
A||--------------------------|-------------------------|
F||--------------------------|-------------------------|
C||--------------------------|-------------------------|
G||--------------------------|-------------------------|
D||--0--0--0-----0--0--0-----|--0--0--0-----0--0--1----|
G||--0--0--0-----0--0--0-----|--0--0--0-----0--0--1----|


    PM PM PM    PM PM PM                               PM PM PM    PM PM PM       PM PM PM    PM PM        
D||--------------------------|-----------------------|--------------------------|-------------------------|
A||--------------------------|-----------------------|--------------------------|-------------------------|
F||--------------------------|-----------------------|--------------------------|-------------------------|
C||--------------------------|--8----7---------------|--------------------------|-------------------------|
G||--------------------------|------------8--7--6----|--------------------------|-------------------------|
D||--0--0--0-----0--0--0-----|-----------------------|--0--0--0-----0--0--0-----|--0--0--0-----0--0--1----|
G||--0--0--0-----0--0--0-----|-----------------------|--0--0--0-----0--0--0-----|--0--0--0-----0--0--1----|

                                               
D||----------------------|-----------------------|
A||----------------------|-----------------------|
F||----------------------|-----------------------|
C||--8----7--------------|-------8---------------|
G||------------8----7----|--6---------5--4--3----|
D||----------------------|-----------------------|
G||----------------------|-----------------------|



GALLOPING VERSE 
    PM PM PM PM PM PM PM PM PM PM    
D||--------------------------------|
A||--------------------------------|
F||--------------------------------|
C||--------------------------------|
G||--------------------------------|
D||--0--0--0--0--0--0--0--0--0--0--|
G||--0--0--0--0--0--0--0--0--0--0--|


    PM PM PM PM PM PM PM         PM PM PM PM PM PM PM PM PM PM                            
D||----------------------------|--------------------------------|-----------------------|
A||----------------------------|--------------------------------|-----------------------|
C||----------------------------|--------------------------------|-----------------------|
F||-----------------------8----|--------------------------------|--8----7---------------|
G||-----------------------5----|--------------------------------|------------8--7--6----|
D||--0--0--0--0--0--0--0--5----|--0--0--0--0--0--0--0--0--0--0--|-----------------------|
G||--0--0--0--0--0--0--0-------|--0--0--0--0--0--0--0--0--0--0--|-----------------------|


    PM PM PM PM PM PM PM PM PM PM    PM PM PM PM PM PM PM         PM PM PM PM PM PM PM PM PM PM  
D||--------------------------------|----------------------------|--------------------------------|
A||--------------------------------|----------------------------|--------------------------------|
F||--------------------------------|----------------------------|--------------------------------|
C||--------------------------------|-----------------------8----|--------------------------------|
G||--------------------------------|-----------------------5----|--------------------------------|
D||--0--0--0--0--0--0--0--0--0--0--|--0--0--0--0--0--0--0--5----|--0--0--0--0--0--0--0--0--0--0--|
G||--0--0--0--0--0--0--0--0--0--0--|--0--0--0--0--0--0--0-------|--0--0--0--0--0--0--0--0--0--0--|
 
    
D||-----------------------|
A||-----------------------|
F||-----------------------|
C||--8----7---------------|
G||------------8--7--6----|
D||-----------------------|
G||-----------------------|



OUTRO
    PM        PM           PM   PM PM PM PM         PM        PM        
D||----------------------|------------------------|----------------------|
A||----------------------|------------------------|----------------------|
F||----------------------|------------------------|----------------------|
C||----------------------|------------------------|----------------------|
G||--1---------1---------|--1---------------------|--1---------1---------|
D||--1----2----1----2----|--1----2----0--0--1--2--|--1----2----1----2----|
G||-------2---------2----|-------2----0--0--1--2--|-------2---------2----|


    PM   PM   PM           PM        PM           PM   PM PM PM PM         PM        PM       
D||----------------------|----------------------|------------------------|----------------------|
A||----------------------|----------------------|------------------------|----------------------|
F||----------------------|----------------------|------------------------|----------------------|
C||----------------------|----------------------|------------------------|----------------------|
G||--1-------------------|--1---------1---------|--1---------------------|--1---------1---------|
D||--1----2----0----0----|--1----2----1----2----|--1----2----0--0--1--2--|--1----2----1----2----|
G||-------2----2----2----|-------2---------2----|-------2----0--0--1--2--|-------2---------2----|


    PM PM       PM PM             PM PM   PM   PM         PM PM   PM PM PM PM       PM PM   PM   PM     
D||--------------------------|-----------------------|-------------------------|-----------------------|
A||--------------------------|-----------------------|-------------------------|-----------------------|
F||--------------------------|-----------------------|-------------------------|-----------------------|
C||--------------------------|-----------------------|-------------------------|-----------------------|
G||--------------------------|--1--------------------|--1----------------------|--1--------------------|
D||--2--1--------1--0--------|--1--0--2----3----2----|--1--0--2----0--0--1--2--|--1--0--2----3----2----|
G||--2--1--------1--0--------|-----0--2----3----2----|-----0--2----0--0--1--2--|-----0--2----3----2----|


    PM PM        PM PM              PM PM   PM   PM         PM PM   PM PM PM PM       PM PM   PM   PM       
D||----------------------------|-----------------------|-------------------------|-----------------------|
A||----------------------------|-----------------------|-------------------------|-----------------------|
F||------------L---------------|-----------------------|-------------------------|-----------------------|
C||--------8---L------------7--|-----------------------|-------------------------|-----------------------|
G||-----------12--------11--L--|--1--------------------|--1----------------------|--1--------------------|
C||--0--0---------0--0---------|--1--0--2----3----2----|--1--0--2----0--0--1--2--|--1--0--2----3----2----|
G||--0--0---------0--0---------|-----0--2----3----2----|-----0--2----0--0--1--2--|-----0--2----3----2----|


    PM PM        PM PM              PM PM   PM   PM         PM PM   PM PM PM PM       PM PM   PM   PM      
D||----------------------------|-----------------------|-------------------------|-----------------------|
A||----------------------------|-----------------------|-------------------------|-----------------------|
F||----------------------------|-----------------------|-------------------------|-----------------------|
C||--------8---L------------7--|-----------------------|-------------------------|-----------------------|
G||-----------12--------11--L--|--1--------------------|--1----------------------|--1--------------------|
D||--0--0---------0--0---------|--1--0--1----2----1----|--1--0--1----2--1--0--1--|--1--0--1----2----1----|
G||--0--0---------0--0---------|-----0--1----2----1----|-----0--1----2--1--0--1--|-----0--1----2----1----|


    PM PM NH NH NH NH     PM PM  NH NH NH NH        PM PM   PM   PM         PM PM   PM PM PM PM   
D||----------------------------------------------|-----------------------|-------------------------|
A||----------------------------------------------|-----------------------|-------------------------|
F||----------------------------------------------|-----------------------|-------------------------|
C||----------------------------------------------|-----------------------|-------------------------|
G||----------------------------------------------|--1--------------------|--1----------------------|
D||--0--0--5--5--5--5------------4--4--4--4------|--1--0--1----2----1----|--1--0--1----2--1--0--1--|
G||--0--0------------------0--0------------------|-----0--1----2----1----|-----0--1----2--1--0--1--|


    PM PM   PM   PM         PM PM NH NH NH NH  PM PM NH NH NH NH                                    
D||-----------------------|------------------------------------------|-------------------||
A||-----------------------|------------------------------------------|-------------------||
F||-----------------------|------------------------------------------|-------------------||
C||-----------------------|------------------------------------------|-------------------||
G||--1--------------------|------------------------------------------|--0----------------||
D||--1--0--1----2----1----|--0--0--5--5--5--5--------4--4--4--4------|--0----------------||
G||-----0--1----2----1----|--0--0--------------0--0------------------|--0----------------||


Suggest correction
Give kudos to tab author, rate the tab!
1 2 3 4 5
comments
print report bad tab
guest
You may want to rate the tab now too:
select rating
Wanna post a correction for this tab? Suggest correction