Oops, an error
Loading. Please wait.

Bedford Falls tab

1,912 views 12 this week
3 commentsread comments
1 2 3 4 5
2 more votes to show rating
add to favorites
×
Save as Personal and add changes to this tab that will be seen only by you. Learn more ›
×
You can save this tab as Personal to edit and correct it or add notes. All changes will be seen only by you. Learn more »
launch autoscroll
font size
0
reset
how to read this tab
guitar tuner
edit
Autoscroll
slow
fast
+/-
esc
set tempo
stop
       -------------------------------------------------------------------------------
                             Bedford Falls - Knuckle Puck
-------------------------------------------------------------------------------
I did not make this! I only made a tab out of it. All credit goes to PopPunkGuitarCovers on YouTube.
https://www.youtube.com/watch?v=Sj5Ofg7VHVw

I HIGHLY recommend watching the video for learning this! This is only made so that it will be easier to know
what you play.

The time indicates where certain things are in the VIDEO linked above, not anywhere else.

Thanks for letting me tab this!

This is rhythm only!! Let me know if I should make a lead one as well!

E-mail: tommy.saetre@hotmail.com

Tuning: Half-step down (EbAbDbGbBbeb)

[Intro] 
00:10
eb|---------------------------------------------------------------------------|
Bb|---------------------------------------------------------------------------|
Gb|---------------------------------------------------------------------------|
Db|--2-2-2-2-2--4-4--4-4-4-4-4--4--6------------------------------------------|  x2
Ab|--2-2-2-2-2--2-2--x-x-x-x-x--x--6------------------------------------------|
Eb|------------------2-2-2-2-2--2---------------------------------------------|

(Watch video to get muting and strumming pattern right)
eb|---------------------------------------------------------------------------|
Bb|---------------------------------------------------------------------------|
Gb|---------------------------------------------------------------------------|
Db|--2-2-2-2-2--4-4--4-4-4-4-4--4--6------------------------------------------|  x2
Ab|--2-2-2-2-2--2-2--x-x-x-x-x--x--6------------------------------------------|
Eb|------------------2-2-2-2-2--2---------------------------------------------|
 
[Verse]    
"I know you hate yourself..." (Mute until chorus)
00:42
eb|---------------------------------------------------------------------------| 
Bb|---0-0-0-0-0-0-0-0-0-0--0--0--0--0-0-0-0-0---------------------------------|
Gb|---3/4-4-4-4-4-4-4-4/11-11-11-11\9-9-9h8-8---------------------------------|
Db|---------------------------------------------------------------------------|
Ab|---------------------------------------------------------------------------|
Eb|---------------------------------------------------------------------------|
                                                                                x3
eb|---------------------------------------------------------------------------|
Bb|---0-0-0-0-0-0-0-0-0-0-0-0-0-0-0-0-0-0-------------------------------------|
Gb|---3/4-4-4-4-4-4-4-4/8-8-8-8-8-6-6-6-6-------------------------------------|
Db|---------------------------------------------------------------------------|
Ab|---------------------------------------------------------------------------|
Eb|---------------------------------------------------------------------------|

(Play more open on the last notes)
eb|---------------------------------------------------------------------------| 
Bb|---0-0-0-0-0-0-0-0-0-0--0--0--0--0-0-0-0-0-0-0-0-0-0-0-0-0-0---------------|
Gb|---3/4-4-4-4-4-4-4-4/11-11-11-11\9-9-9h8-8\3/4-4-4-4-4-4-4-4---------------|
Db|---------------------------------------------------------------------------|
Ab|---------------------------------------------------------------------------|
Eb|---------------------------------------------------------------------------|

[Chorus](The two last times are fairly difficult, watch the video to get it right)
1:04
eb|---------------------------------------------------------------------------|
Bb|---------------------------------------------------------------------------|
Gb|---2-2-2-2-2-2-x-2-2-2-2-2-2-----------------------------------------------|
Db|---2-2-2-2-2-2-x-2-2-2-2-2-2-4-4-4-4-4-4-4-4-4-4-4-4-----------------------|  x2
Ab|---2-2-2-2-2-2-x-2-2-2-2-2-2-2-2-2-2-2-2-x-x-x-x-x-x-----------------------|
Eb|-----------------------------------------2-2-2-2-2-2-----------------------|

eb|---------------------------------------------------------------------------|
Bb|---------------------------------------------------------------------------|
Gb|---2-2-2-x-2-2-2-x-2-------------------------------------------------------|
Db|---2-2-2-x-2-2-2-x-2--4-4-4-x-4-4-4-x-4-4-4-4-4-4--------------------------|  x2
Ab|---2-2-2-x-2-2-2-x-2--2-2-2-x-2-2-2-x-x-x-x-x-x-x--------------------------|
Eb|--------------------------------------2-2-2-2-2-2--------------------------|

[Verse]
1:26 (Mute all)
eb|---------------------------------------------------------------------------|
Bb|---------------------------------------------------------------------------|
Gb|---------------------------------------------------------------------------|
Db|---4-4-4-4-4-4-4-4-4-4-4-4-4-4-4-4-4---------------------------------------|  2x
Ab|---2-2-2-2-2-2-2-2-2-2-2-2-2-2-2-2-2---------------------------------------|
Eb|---------------------------------------------------------------------------|

1:37
eb|---------------------------------------------------------------------------| 
Bb|---0-0-0-0-0-0-0-0-0-0--0--0--0--0-0-0-0-0---------------------------------|
Gb|---3/4-4-4-4-4-4-4-4/11-11-11-11\9-9-9h8-8---------------------------------|
Db|---------------------------------------------------------------------------|
Ab|---------------------------------------------------------------------------|
Eb|---------------------------------------------------------------------------|
                                                                                3x
eb|---------------------------------------------------------------------------|
Bb|---0-0-0-0-0-0-0-0-0-0-0-0-0-0-0-0-0-0-------------------------------------|
Gb|---3/4-4-4-4-4-4-4-4/8-8-8-8-8-6-6-6-6-------------------------------------|
Db|---------------------------------------------------------------------------|
Ab|---------------------------------------------------------------------------|
Eb|---------------------------------------------------------------------------|

eb|---------------------------------------------------------------------------| 
Bb|---0-0-0-0-0-0-0-0-0-0--0--0--0--0-0-0-0-0-0-0-0-0-0-0-0-0-0---------------|
Gb|---3/4-4-4-4-4-4-4-4/11-11-11-11\9-9-9h8-8\3/4-4-4-4-4-4-4-4---------------|
Db|---------------------------------------------------------------------------|
Ab|---------------------------------------------------------------------------|
Eb|---------------------------------------------------------------------------|

[Chorus]
2:00
eb|---------------------------------------------------------------------------|
Bb|---------------------------------------------------------------------------|
Gb|---2-2-2-2-2-2-x-2-2-2-2-2-2-----------------------------------------------|
Db|---2-2-2-2-2-2-x-2-2-2-2-2-2-4-4-4-4-4-4-4-4-4-4-4-4-----------------------|  x2
Ab|---2-2-2-2-2-2-x-2-2-2-2-2-2-2-2-2-2-2-2-x-x-x-x-x-x-----------------------|
Eb|-----------------------------------------2-2-2-2-2-2-----------------------|

eb|---------------------------------------------------------------------------|
Bb|---------------------------------------------------------------------------|
Gb|---2-2-2-x-2-2-2-x-2-------------------------------------------------------|
Db|---2-2-2-x-2-2-2-x-2--4-4-4-x-4-4-4-x-4-4-4-4-4-4--------------------------|  x2
Ab|---2-2-2-x-2-2-2-x-2--2-2-2-x-2-2-2-x-x-x-x-x-x-x--------------------------|
Eb|--------------------------------------2-2-2-2-2-2--------------------------|

[Bridge]
2:21
eb|---------------------------------------------------------------------------|
Bb|---------------------------------------------------------------------------|
Gb|---------------------------------------------------------------------------|
Db|---2-----------------------------------------------------------------------|
Ab|---2-----------------------------------------------------------------------|
Eb|---------------------------------------------------------------------------|

"Fucked and complacement..."
2:30
eb|---------------------------------------------------------------------------|
Bb|---------------------------------------------------------------------------|
Gb|---------------------------------------------------------------------------|
Db|---2(x12)--4(x6)-4(x3)-4(x3)-----------------------------------------------|  x4
Ab|---2-------2-----x-----x---------------------------------------------------|
Eb|-----------------4-----2---------------------------------------------------|

[Outro]
"I break through the ice..." (Not correct, please watch video, its not that hard)
3:03
eb|---------------------------------------------------------------------------|
Bb|---------------------------------------------------------------------------|
Gb|---------------------------------------------------------------------------|
Db|-------1-----1-------1------------------------------1----------------------|  x4
Ab|-----2---2-----2---2---2----------------------------2---------------------|
Eb|---0-------0-----0-------0-------------------------------------------------|


************************************

| /   slide up
| \   slide down
| h   hammer-on
| p   pull-off
| ~   vibrato
| +   harmonic
| x   Mute note
| b   Bend
| pb  Pre-bend
| br  Bend release
| pbr Pre-bend release
| brb Bend release bend

************************************    

            
            
Suggest correction
Creating personal tab
Creating personal tab
You can edit any tab online and save it as your Personal.

You can edit, replace or remove any tab part or add personal notes – all changes will be seen only by you.

Personal tabs can be accessed anytime from any device, even offline.
Learn more »
Give kudos to tab author, rate the tab!
1 2 3 4 5
comments
print report bad tab
3 comments total.
0 reply
thisspoopylife 10 Mar 04, 2016 08:27 AM

could you make a tab for the other guitar part? i'm having trouble with just the video.

0 reply
djdrums159 604 Jun 07, 2017 10:49 PM, edited on June 8 2017, 02:49 am

the outro is b|---------------------------------------------------|------------------|Bb|---------------------------------------------------|------------------|Gb|---------------------------------3-----------------|------------------|Db|---------1-----------1-------4-----4-------4-----4-|x2--------2-------| Ab|-----2-----2-----2-----2---2---2-----2---2-----2---|----------1-------|Eb|---0---0-----0-0---0-----0-------------4-----2-----|------------------|

+1 reply
djdrums159 604 Jun 07, 2017 10:50 PM

well that got fucked up

the outro is
eb|---------------------------------------------------|---------------|
Bb|---------------------------------------------------|---------------|
Gb|---------------------------------3-----------------|---------------|
Db|---------1-----------1-------4-----4-------4-----4-|x2--------2----|
Ab|-----2-----2-----2-----2---2---2-----2---2-----2---|----------1----|
Eb|---0---0-----0-0---0-----0-------------4-----2-----|---------------|

guest
You may want to rate the tab now too:
select rating
Wanna post a correction for this tab? Suggest correction