Oops, an error
Loading. Please wait.

Double Helix tab

406 views 159 this week
2 commentsread comments
1 2 3 4 5
1 last vote to show rating
add to favorites
×
Save as Personal and add changes to this tab that will be seen only by you. Learn more ›
×
You can save this tab as Personal to edit and correct it or add notes. All changes will be seen only by you. Learn more »
launch autoscroll
font size
0
reset
how to read this tab
guitar tuner
edit
Autoscroll
slow
fast
+/-
esc
set tempo
stop
Check out my cover: https://www.youtube.com/watch?v=nqTnCAZOmkg

[Intro]
D#|---------------------------------------------------------------------------|
A#|---------------------------------------------------------------------------|
F#|---------------------------------------------------------------------------|
C#|-2-2-2-2--2-2---9-9-9-9--9-9---10-10-10-10--10-10--10-10-10-10-10-10-10-10-|
G#|-2-2-2-2--2-2---9-9-9-9--9-9---10-10-10-10--10-10--10-10-10-10-10-10-10-10-|
C#|-2-2-2-2--2-2---9-9-9-9--9-9---10-10-10-10--10-10--10-10-10-10-10-10-10-10-|

D#|---------------------------------------------------------------------------|
A#|---------------------------------------------------------------------------|
F#|---------------------------------------------------------------------------|
C#|-2-2-2-2--2-2---9-9-9-9--9-9---10-10-10-10--10-10--7--7-7-7----------------|
G#|-2-2-2-2--2-2---9-9-9-9--9-9---10-10-10-10--10-10--7--7-7-7----------------|
C#|-2-2-2-2--2-2---9-9-9-9--9-9---10-10-10-10--10-10--7--7-7-7----------------|

D#|---------------------------------------------------------------------------|
A#|---------------------------------------------------------------------------|
F#|---------------------------------------------------------------------------|
C#|-2-2-2-2--2-2---9-9-9-9--9-9---10-10-10-10--10-10--10-10-10-10-10-10-10-10-|
G#|-2-2-2-2--2-2---9-9-9-9--9-9---10-10-10-10--10-10--10-10-10-10-10-10-10-10-|
C#|-2-2-2-2--2-2---9-9-9-9--9-9---10-10-10-10--10-10--10-10-10-10-10-10-10-10-|

D#|---------------------------------------------------------------------------|
A#|---------------------------------------------------------------------------|
F#|---------------------------------------------------------------------------|
C#|-2-2-2-2--2-2---9-9-9-9--9-9---10-10-10-10--10-10--7-7-7-7--7-7-7-7--------|
G#|-2-2-2-2--2-2---9-9-9-9--9-9---10-10-10-10--10-10--7-7-7-7--7-7-7-7--------|
C#|-2-2-2-2--2-2---9-9-9-9--9-9---10-10-10-10--10-10--7-7-7-7--7-7-7-7--------|

[Verse]
D#|---------------------------------------------------------------------------|
A#|---------------------------------------------0-----------------------------|
F#|------------------0-------0--------------------0-------0-------------------| play 2 times
C#|-0h2/4h5/9------4-------4-----0h2/4h5/9------------------0-----------------|
G#|--------------5-------5-------------------7---------5----------------------|
C#|---------------------------------------------------------------------------|

D#|--------------2------------------------------------------------------------|
A#|----3------------3--------3------3-----0-----------------------------------|
F#|------0-----------------0------0-------0-----------------------------------|
C#|-2---------4----------5------5---------7-----------------------------------|
G#|---------------------------------------------------------------------------|
C#|---------------------------------------------------------------------------|

[Chorus] play 2 times
D#|---------------------------------------------------------------------------|
A#|---------------------------------------------------------------------------|
F#|---------------------------------------------------------------------------|
C#|-2-2-2-2--2-2---9-9-9-9--9-9---10-10-10-10--10-10--10-10-10-10-10-10-10-10-|
G#|-2-2-2-2--2-2---9-9-9-9--9-9---10-10-10-10--10-10--10-10-10-10-10-10-10-10-|
C#|-2-2-2-2--2-2---9-9-9-9--9-9---10-10-10-10--10-10--10-10-10-10-10-10-10-10-|

D#|---------------------------------------------------------------------------|
A#|---------------------------------------------------------------------------|
F#|---------------------------------------------------------------------------|
C#|-2-2-2-2--2-2---9-9-9-9--9-9---10-10-10-10--10-10--7-7-7-7--7-7-7-7--------|
G#|-2-2-2-2--2-2---9-9-9-9--9-9---10-10-10-10--10-10--7-7-7-7--7-7-7-7--------|
C#|-2-2-2-2--2-2---9-9-9-9--9-9---10-10-10-10--10-10--7-7-7-7--7-7-7-7--------|

[Verse]
D#|---------------------------------------------------------------------------|
A#|---------------------------------------------0-----------------------------|
F#|------------------0-------0--------------------0-------0-------------------| play 2 times
C#|-0h2/4h5/9------4-------4-----0h2/4h5/9------------------0-----------------|
G#|--------------5-------5-------------------7---------5----------------------|
C#|---------------------------------------------------------------------------|

D#|--------------2------------------------------------------------------------|
A#|----3------------3--------3------3----------0-----0------------------------|
F#|------0-----------------0------0---------0-----0-----0---------------------|
C#|-2---------4----------5------5---------7----------------9b10r9-------------|
G#|---------------------------------------------------------------------------|
C#|---------------------------------------------------------------------------|

D#|---------------2-----------------------------------------------------------|
A#|----3-------------3--------3------3-----0----------------------------------|
F#|------0------0-----------0------0-------0----------------------------------|
C#|-2---------4----------5------5----------7----------------------------------|
G#|---------------------------------------------------------------------------|
C#|---------------------------------------------------------------------------|

[Chorus] play 2 times
D#|---------------------------------------------------------------------------|
A#|---------------------------------------------------------------------------|
F#|---------------------------------------------------------------------------|
C#|-2-2-2-2--2-2---9-9-9-9--9-9---10-10-10-10--10-10--10-10-10-10-10-10-10-10-|
G#|-2-2-2-2--2-2---9-9-9-9--9-9---10-10-10-10--10-10--10-10-10-10-10-10-10-10-|
C#|-2-2-2-2--2-2---9-9-9-9--9-9---10-10-10-10--10-10--10-10-10-10-10-10-10-10-|

D#|---------------------------------------------------------------------------|
A#|---------------------------------------------------------------------------|
F#|---------------------------------------------------------------------------|
C#|-2-2-2-2--2-2---9-9-9-9--9-9---10-10-10-10--10-10--7-7-7-7--7-7-7-7--------|
G#|-2-2-2-2--2-2---9-9-9-9--9-9---10-10-10-10--10-10--7-7-7-7--7-7-7-7--------|
C#|-2-2-2-2--2-2---9-9-9-9--9-9---10-10-10-10--10-10--7-7-7-7--7-7-7-7--------|

[Bridge]
D#|---------------------------------------------------------------------------|
A#|---------------------------------------------------------------------------|
F#|---------------------------------------------------------------------------|
C#|-10-10-10-10-10------------0--2-2-2-2--2-2--5-5-5-5--5-5-------------------| play 2 times
G#|-10-10-10-10-10------------0--2-2-2-2--2-2--5-5-5-5--5-5-------------------|
C#|-10-10-10-10-10------------0--2-2-2-2--2-2--5-5-5-5--5-5-------------------|

D#|---------------------------------------------------------------------------|
A#|---------------------------------------------------------------------------|
F#|---------------------------------------------------------------------------| play 2 times
C#|-10-10-10-10--10-10-10-10--10-10-10-10--10-10-10-10--2-2-2-2--5-5-5-5------|
G#|-10-10-10-10--10-10-10-10--10-10-10-10--10-10-10-10--2-2-2-2--5-5-5-5------|
C#|-10-10-10-10--10-10-10-10--10-10-10-10--10-10-10-10--2-2-2-2--5-5-5-5------|

[Chorus] play 2 times
D#|---------------------------------------------------------------------------|
A#|---------------------------------------------------------------------------|
F#|---------------------------------------------------------------------------|
C#|-2-2-2-2--2-2---9-9-9-9--9-9---10-10-10-10--10-10--10-10-10-10-10-10-10-10-|
G#|-2-2-2-2--2-2---9-9-9-9--9-9---10-10-10-10--10-10--10-10-10-10-10-10-10-10-|
C#|-2-2-2-2--2-2---9-9-9-9--9-9---10-10-10-10--10-10--10-10-10-10-10-10-10-10-|

D#|---------------------------------------------------------------------------|
A#|---------------------------------------------------------------------------|
F#|---------------------------------------------------------------------------|
C#|-2-2-2-2--2-2---9-9-9-9--9-9---10-10-10-10--10-10--7-7-7-7--7-7-7-7--------|
G#|-2-2-2-2--2-2---9-9-9-9--9-9---10-10-10-10--10-10--7-7-7-7--7-7-7-7--------|
C#|-2-2-2-2--2-2---9-9-9-9--9-9---10-10-10-10--10-10--7-7-7-7--7-7-7-7--------|

************************************

| h   Hammer-on
| p   Pull-off
| r   Release
| b   Bend
| /   Slide up
| \   Slide down

************************************

            
            
Suggest correction
Creating personal tab
Creating personal tab
You can edit any tab online and save it as your Personal.

You can edit, replace or remove any tab part or add personal notes – all changes will be seen only by you.

Personal tabs can be accessed anytime from any device, even offline.
Learn more »
Give kudos to tab author, rate the tab!
1 2 3 4 5
comments
print report bad tab
2 comments total.
0 reply
hysteriaddict 322 Sep 14, 2017 01:16 AM

KP tries not to use power chords whenever they can avoid it, mate. This sounds way too... uniform to be correct. Plus you're missing the lead guitar pretty much everywhere. At least you have the root notes correct to work off of.

guest
You may want to rate the tab now too:
select rating
Wanna post a correction for this tab? Suggest correction