Oops, an error
Loading. Please wait.

Fences tab

2,005 views 12 this week
no commentswrite comment
1 2 3 4 5
x 3
add to favorites
×
Save as Personal and add changes to this tab that will be seen only by you. Learn more ›
×
You can save this tab as Personal to edit and correct it or add notes. All changes will be seen only by you. Learn more »
launch autoscroll
font size
0
reset
how to read this tab
guitar tuner
edit
Autoscroll
slow
fast
+/-
esc
set tempo
stop
-------------------------------------------------------------------------------
                             FENCES - Knuckle Puck
-------------------------------------------------------------------------------
Tabbed by: AdamC1997
E-mail: adam.couts@yahoo.com

Tuning: Half-Step Down  Eb Ab Db Gb Bb Eb

[Intro] 0:00 - 0:10                                   1st     2nd
e|---------------------------------------------------|-----|-------------------|
B|---------------------------------------------------|-----|-------------------|
G|---------------------------------------------------|-----|-------------------|
D|--5--5-5-5-5--5----------------5--5-5-5--5---------|-----|-7-9---------------|
A|---------------7--7-7-7-5-5-5-------------7--7-7-7-|5-5-5|-5-7---------------|
E|---------------------------------------------------|-----|-------------------|
       x x x x      x x x   x x     x x x      x x x  x x x

[Intro] 0:11 - 0:20
e|------------------------------------------------------------------0-----0-----0-|
B|--------------------------------------------------------------10p8--10p8--10p8-o|
G|-9-9-9-9-7-7-7-7-9-9-9-9-12-12-12-12-14-14-14-14-11-11-11-11--------------------|
D|-x-x-x-x-x-x-x-x-x-x-x-x--x--x--x--x--x--x--x--x-x--x--x--x---------------------|
A|-7-7-7-7-5-5-5-5-7-7-7-7-10-10-10-10-12-12-12-12-9--9--9--9--------------------o|
E|--------------------------------------------------------------------------------|

[Verse] 0:21 - 0:31
e|---------------------------------------------------------------------------|
B|--------------------------------------7-----7-----7----3----3----3----3----|
G|------4-----4-----4-----4------7---------------------2----2----2----2------|-Slide on G string
D|----5-----5-----5-----5------5------7-----7-----7--------------------------|(Listen to track 
A|--3-----3-----3-----3------5------5-----5-----5-----2----2----2----2-------|for timing)
E|---------------------------------------------------------------------------|

[Pre Chorus] 0:32 - 0:42       End with this and let it ring on 0:42
e|-7~~---------------|----------|
B|--8~-------8--10--o|----8-----|
G|---77777777-77--77-|----7-----|
D|-------------------|----------|
A|------------------o|----------|
E|-------------------|----------|
     xxxxxxxx xx xx

[Chorus] 0:45 - 0:55
e|------------------------------------------------------------------0-----0---|
B|--------------------------------------------------------------10p8--10p8---o|
G|-9-9-9-9-7-7-7-7-9-9-9-9-12-12-12-12-14-14-14-14-11-11-11-11----------------|
D|-x-x-x-x-x-x-x-x-x-x-x-x--x--x--x--x--x--x--x--x-x--x--x--x-----------------|
A|-7-7-7-7-5-5-5-5-7-7-7-7-10-10-10-10-12-12-12-12-9--9--9--9----------------o|
E|----------------------------------------------------------------------------|

[Verse] 0:56 - 1:06
e|----------------------------------------------------------------------------------|
B|--------------------------------------7-----7-----7----3----3----3----3----3----3-|
G|------4-----4-----4-----4------7---------------------2----2----2----2----2----2---| 
D|----5-----5-----5-----5------5------7-----7-----7---------------------------------|
A|--3-----3-----3-----3------5------5-----5-----5-----2----2----2----2----2----2----|
E|----------------------------------------------------------------------------------|

[Verse] 1:07 - 1:15
e|---------------------------------------------------------------------------|
B|---------------------------------------------------------------------------|
G|---------------------------------------------------------------------------|
D|-----5-----5-----5-4h5p4h5p4h5-------5-----5-----5-4h5p4h5p4h5-------------|
A|-3-3---3-3---3-3-----------------5-5---5-5---5-5---------------------------|
E|---------------------------------------------------------------------------|
   x x   x x   x x                 x x   x x   x x

e|---------------------------------------------------------------------------|
B|---------------------------------------------------------------------------|
G|---------------------------------------------------------------------------|
D|-----5-----5-----5-4h5p4h5p4h5-----5-----5-----5-4h5/9\7-------------------|
A|-2-2---2-2---2-2---------------2-2---2-2---2-2-----------------------------|
E|---------------------------------------------------------------------------|
   x x   x x   x x               x x   x x   x x

[Pre Chorus] 1:17 - 1:25 Repeat 4 times
     1st, 2nd, 3rd       4th
e|-7~~---------------|----------|
B|--8~-------8--10--o|----7-7---|
G|---77777777-77--77-|----7-7---|
D|-------------------|----------|
A|------------------o|----------|
E|-------------------|----------|
     xxxxxxxx xx xx

[Chorus] 1:26 - 1:36
e|------------------------------------------------------------------0-----0---|
B|--------------------------------------------------------------10p8--10p8---o|
G|-9-9-9-9-7-7-7-7-9-9-9-9-12-12-12-12-14-14-14-14-11-11-11-11----------------|
D|-x-x-x-x-x-x-x-x-x-x-x-x--x--x--x--x--x--x--x--x-x--x--x--x-----------------|
A|-7-7-7-7-5-5-5-5-7-7-7-7-10-10-10-10-12-12-12-12-9--9--9--9----------------o|
E|----------------------------------------------------------------------------|

[Post Chorus] 1:37 - 1: 58 Play 4 times
e|-10-10--10-10--10-10--10-10--12-10------------------------------------------|
B|-----------------------------------12br-10-12br-10-------------------------o|
G|------12-----12-----12-----12----------------------12/14--------------------|
D|----------------------------------------------------------------------------|
A|---------------------------------------------------------------------------o|
E|----------------------------------------------------------------------------|

[Post Chorus]
"Just like you wanted to, just like you wanted to!"
e|---------------------------------|
B|---------------------------------|
G|-12~~~~~~~~~~~~~-----------------|
D|---------------------------------|
A|---------------------------------|
E|---------------------------------|

************************************

| /   slide up
| \   slide down
| h   hammer-on
| p   pull-off
| ~   vibrato
| +   harmonic
| x   Mute note
| b   Bend
| pb  Pre-bend
| br  Bend release
| pbr Pre-bend release
| brb Bend release bend

************************************

            
            
Suggest correction
Creating personal tab
Creating personal tab
You can edit any tab online and save it as your Personal.

You can edit, replace or remove any tab part or add personal notes – all changes will be seen only by you.

Personal tabs can be accessed anytime from any device, even offline.
Learn more »
Give kudos to tab author, rate the tab!
1 2 3 4 5
comments
print report bad tab
guest
You may want to rate the tab now too:
select rating
Wanna post a correction for this tab? Suggest correction