Oops, an error
Loading. Please wait.

Gold Rush tab

3,095 views 9 this week
no commentswrite comment
1 2 3 4 5
x 6
add to favorites
×
Save as Personal and add changes to this tab that will be seen only by you. Learn more ›
×
You can save this tab as Personal to edit and correct it or add notes. All changes will be seen only by you. Learn more »
launch autoscroll
font size
0
reset
how to read this tab
guitar tuner
edit
Autoscroll
slow
fast
+/-
esc
set tempo
stop
Tuning: Half-Step Down (Eb, Ab, Db, Gb, Bb, eb)

[Intro]
eb|------------------------------------------------------------------------------------------------|
Bb|.----------------------------------------------------------------------------------------------.|  (x2)
Gb|------------------------------------------------------------------------------------------------| 
Db|-----7-------------4-------------7-------------4--4b--------------------------------------------|
Ab|.---5-----5-------5-----5-------5-----5-------5------5-----------------------------------------.|
Eb|-3-----------3-5-----------5-7-----------7-5----------------------------------------------------|

[Chorus]
eb|------------------------------------------------------------------------------------------------|
Bb|.----------------------------------------------------------------------------------------------.|  (x2)
Gb|-7--7--x-11---11-11-11-11b----11-11-11b----11/14-7--7--x----------------------------------------|
Db|-x--x--x-x-----x--x--x--x------x--x--x------x--x-x--x--x--9--7-7-7-7-7-7-7-7--------------------|
Ab|.5--5--x-9-----9--9--9--9b-----9--9--9b-----9/12-5--5--x--x--x-x-x-x-x-x-x-x-------------------.|
Eb|----------------------------------------------------------7--5-5-5-5-5-5-5-5--------------------|

eb|-------------------------------------------------------------------------------------------------|
Bb|-------------------------------------------------------------------------------------------------|
Gb|-------------------------------------------------------------------------------------------------|
Db|--5-5-5-5----------------------------------------------------------------------------------------|
Ab|--5-5-5-5----------------------------------------------------------------------------------------|
Eb|--3-3-3-3----------------------------------------------------------------------------------------|
     + + + +

[Verse]
eb|-------------------------------------------------------------------------------------------------|
Bb|-------------------------------------------------------------------------------------------------|   
Gb|-------------------------------------------------------------------------------------------------|
Db|-----7-------------4-------------7-------------4--4b---------------------------------------------|
Ab|---5-----5-------5-----5-------5-----5-------5------5--------------------------------------------|
Eb|-3-----------3-5-----------5-7-----------7-5-----------------------------------------------------|

eb|------------------------------------------------------------------------------------------------|
Bb|.----------------------------------------------------------------------------------------------.|
Gb|-7--7--x-7--7--x-7-7-x-x-9--9--x-9--9--x-9-9-x-x------------------------------------------------|  (x2)
Db|-7--7--x-7--7--x-7-7-x-x-7--7--x-7--7--x-7-7-x-x------------------------------------------------|
Ab|.5--5--x-5--5--x-5-5-x-x-5--5--x-5--5--x-5-5-x-x-----------------------------------------------.|
Eb|------------------------------------------------------------------------------------------------|

eb|-------------------------------------------------------------------------------------------------|
Bb|-------------------------------------------------------------------------------------------------|
Gb|--/9---7------/9---7-----------------------------------------------------------------------------|
Db|-----7---7-------7---7---------------------------------------------------------------------------|
Ab|-----------9-----------9b------------------------------------------------------------------------|
Eb|-------------------------------------------------------------------------------------------------|

eb|-------------------------------------------------------------------------------------------------|
Bb|-------------------------------------------------------------------------------------------------|
Gb|-7--7--x-7--7--x-7-7-x-x-9--9--x-9--9--x-9-9-x-x-------------------------------------------------|  
Db|-7--7--x-7--7--x-7-7-x-x-7--7--x-7--7--x-7-7-x-x-------------------------------------------------|
Ab|-5--5--x-5--5--x-5-5-x-x-5--5--x-5--5--x-5-5-x-x--------------------------------------------------|
Eb|-------------------------------------------------------------------------------------------------|

eb|-------------------------------------------------------------------------------------------------|
Bb|-------------------------------------------------------------------------------------------------|
Gb|--/9---7------/9---7-----------------------------------------------------------------------------|
Db|-----7---7-------7---7---------------------------------------------------------------------------|
Ab|-----------9-----------9b------------------------------------------------------------------------|
Eb|-------------------------------------------------------------------------------------------------|

eb|-------------------------------------------------------------------------------------------------|
Bb|-------------------------------------------------------------------------------------------------|
Gb|-7-7-x-7-7--7-7-x-x-9-9-x-x-x-x-9-9-x-x-9\-------------------------------------------------------|
Db|-7-7-x-7-7--7-7-x-x-7-7-x-x-x-x-7-7-x-x-7\-------------------------------------------------------|
Ab|-5-5-x-5-5--5-5-x-x-5-5-x-x-x-x-5-5-x-x-5\-------------------------------------------------------|
Eb|-------------------------------------------------------------------------------------------------|

[Chorus]
eb|------------------------------------------------------------------------------------------------|
Bb|.----------------------------------------------------------------------------------------------.|  (x2)
Gb|-7--7--x-11---11-11-11-11b----11-11-11b----11/14-7--7--x----------------------------------------|
Db|-x--x--x-x-----x--x--x--x------x--x--x------x--x-x--x--x--9--7-7-7-7-7-7-7-7--------------------|
Ab|.5--5--x-9-----9--9--9--9b-----9--9--9b-----9/12-5--5--x--x--x-x-x-x-x-x-x-x-------------------.|
Eb|----------------------------------------------------------7--5-5-5-5-5-5-5-5--------------------|

eb|-------------------------------------------------------------------------------------------------|
Bb|-------------------------------------------------------------------------------------------------|
Gb|-------------------------------------------------------------------------------------------------|
Db|--5-5-5-5-5-5------------------------------------------------------------------------------------|
Ab|--5-5-5-5-5-5------------------------------------------------------------------------------------|
Eb|--3-3-3-3-3-3------------------------------------------------------------------------------------|
     + + + + + +

[Verse]
eb|-------------------------------------------------------------------------------------------------|
Bb|-------------------------------------------------------------------------------------------------|
Gb|---7----9----7---7-6--h7p6h7----------------------------------------------------------------------|  
Db|-7---7---------7---------------------------------------------------------------------------------|  
Ab|-------------------------------------------------------------------------------------------------|
Eb|-------------------------------------------------------------------------------------------------|

eb|------------------------------------------------------------------------------------------------|
Bb|----10--------------------------10-------------------------------------------------------------.|  (x3)
Gb|--7----9----7---7--6--h76h7---7------9----7---7---6-h7/9\7--------------------------------------|
Db|7-------------7-------------7---------------7---------------------------------------------------|
Ab|-----------------------------------------------------------------------------------------------.|
Eb|------------------------------------------------------------------------------------------------|
  
eb|-------------0-----------------------------------------------------------------------------------|
Bb|-----------3---3~~~-----------------------------------------------------------------------------.|  (x4)
Gb|-7-----------------------------------------------------------------------------------------------|
Db|---7-4/5\4---------------------------------------------------------------------------------------|
Ab|------------------------------------------------------------------------------------------------.|
Eb|-------------------------------------------------------------------------------------------------|

[Chorus]
eb|------------------------------------------------------------------------------|----------------|
Bb|.----------------------------------------------------------------------------.|---------------.|    (x4)
Gb|-7--7--x-11---11-11-11-11b----11-11-11b----11/14-7--7--x----------------------|----------------|
Db|-x--x--x-x-----x--x--x--x------x--x--x------x--x-x--x--x--9--7-7-7-7-7-7-7-7--|--7-------------|
Ab|.5--5--x-9-----9--9--9--9b-----9--9--9b-----9/12-5--5--x--x--x-x-x-x-x-x-x-x-.|--x~-----------.|
Eb|----------------------------------------------------------7--5-5-5-5-5-5-5-5--|--5-------------|


************************************

| b  Bend
| x  Dead note
| /  Slide up
| \  Slide down
| h  Hammer-on
| p  Pull-off
| ~  Vibrato

************************************

            
            
Suggest correction
Creating personal tab
Creating personal tab
You can edit any tab online and save it as your Personal.

You can edit, replace or remove any tab part or add personal notes – all changes will be seen only by you.

Personal tabs can be accessed anytime from any device, even offline.
Learn more »
comments
print report bad tab
guest
You may want to rate the tab now too:
select rating
Wanna post a correction for this tab? Suggest correction