Oops, an error
Loading. Please wait.

Home Alone tab

version 2
version 2

Whole song

  • This version has alternate tuning, and simpler chords.
571 views 12 this week
no commentswrite comment
1 2 3 4 5
x 3
add to favorites
×
Save as Personal and add changes to this tab that will be seen only by you. Learn more ›
×
You can save this tab as Personal to edit and correct it or add notes. All changes will be seen only by you. Learn more »
launch autoscroll
font size
0
reset
how to read this tab
guitar tuner
edit
Autoscroll
slow
fast
+/-
esc
set tempo
stop
About this tab version
This version has alternate tuning, and simpler chords. Was this info helpful? Yes No
Artist: Knuckle Puck
Song: Home Alone
Part of the song: intro/chorus/outro (guitar 1 only)

D Tuning / Whole Step Down from standard

Section names are just guesses on my part. 

Listen to the song for strumming pattern.


[Intro Chords]

"These hands are broken..."

D|----0----0----0----0----0----|----0----0----0----0----0--------------------|
A|----0----0----0----0----0----|----0----0----0----0----0--------------------|
F|----2----4----6----1----4----|----2----4----6----9----4--------------------|
C|----2----4----6----2----4----|----2----4----6----9----4--------------------| x2
G|----0----2----4----2----2----|----0----2----4----7----2--------------------|
D|-------------------0---------|---------------------------------------------|


[Chorus]

"I am expendable..."

D|----0----0----0------------------------------------------------------------|
A|----0----0----0------------------------------------------------------------|
F|----6----4----2------------------------------------------------------------|
C|----6----4----2------------------------------------------------------------| x4
G|----4----2----0------------------------------------------------------------|
D|---------------------------------------------------------------------------|


[Outro]

Guitar 1

D|---------------|---------------|---------------|---------------------------|
A|---------------|---------------|---------------|---------------------------|
F|--------4------|------4-----4--|--------4------|------4-----4--------------|
C|----2-----2----|----2-----2----|----2-----2----|----2-----2----------------| x10
G|--0---0-----0--|---------------|--0---0-----0--|--4-----2------------------|
D|---------------|--0-----2------|---------------|---------------------------|

            
            
Suggest correction
Creating personal tab
Creating personal tab
You can edit any tab online and save it as your Personal.

You can edit, replace or remove any tab part or add personal notes – all changes will be seen only by you.

Personal tabs can be accessed anytime from any device, even offline.
Learn more »
Give kudos to tab author, rate the tab!
1 2 3 4 5
comments
print report bad tab
guest
You may want to rate the tab now too:
select rating
Wanna post a correction for this tab? Suggest correction