Oops, an error
Loading. Please wait.

No Good tab

version 1
version 1

Whole song

Interactive

12,742 views 96 this week
5 commentsread comments
1 2 3 4 5
x 9
add to favorites
×
Save as Personal and add changes to this tab that will be seen only by you. Learn more ›
×
You can save this tab as Personal to edit and correct it or add notes. All changes will be seen only by you. Learn more »
launch autoscroll
font size
0
reset
how to read this tab
guitar tuner
edit
Autoscroll
slow
fast
+/-
esc
set tempo
stop
-------------------------------------------------------------------------------
                             NO GOOD - Knuckle Puck
-------------------------------------------------------------------------------
Tabbed by:Tjlax03
E-mail:Tjlax03@gmail.com

Tuning:Half Step Down 

Lead Guitar


[Intro]

(Part 1)
  eb||--------------------------------------------|
  Bb||--------------------------------------------|
  Gb||-----0-----0-----0~~---0-------0-----0-0~~--|
  Db||---0-----0-----4-----4---4---0-----0---4~~--|
  Ab||-3-----2-----5-------------3-----2-----5~~--|
  Eb||--------------------------------------------|

  eb||-----------------------------------------------------------------------------------|
  Bb||-12--12-12-8--8-8-8--12--12-12-10--10-10-10--12--12-12-8--8-8-8--7--8--10--8-8-8-8-|
  Gb||--0---0--0-0--0-0-0---0---0--0--0---0--0--0---0---0--0-0--0-0-0--0--0---0--0-0-0-0-|
  Db||--9---9--9-5--5-5-5---9---9--9--7---7--7--7---9---9--9-5--5-5-5--4--5---7--5-5-5-5-|
  Ab||-----------------------------------------------------------------------------------|
  Eb||-----------------------------------------------------------------------------------|

  eb||--------------------------------------------|
  Bb||-------8----------------------8-------------|
  Gb||-----7----------------------7---------------|
  Db||-5/7-----9-7-7\5-7-5----5/7-----9-7-7\5-7-9-| X2
  Ab||--------------------------------------------|
  Eb||--------------------------------------------|

  eb||----------------------------------------------------------------------------|
  Bb||----------------------------------------------------------------------------|
  Gb||--0-0---------0-0~~~~~~~~~~~~~~~~--0-0---------0-0~~~~~~~~~~~~~~~~~---------|
  Db||-10-9-7-7-7-7-7-5~~~~~~~~~~~~~~~~-10-9-7-7-7-7-7-9~~~~~~~~~~~~~~~~~-0-5-4-5-|
  Ab||----------------------------------------------------------------------------|
  Eb||----------------------------------------------------------------------------|
PM          X X X X                          X X X X


[Verse 1]

  eb||----------------7---------------------------------------7------------------------|
  Bb||---8-10-8-----8---8-----8-10-8-----8-7-8---8-10-8-----8---8-----8-10-8-----8-7-8-|
  Gb||-7--------7-7-------7-7--------7-7-------7--------7-7-------7-7--------7-7-------|
  Db||---------------------------------------------------------------------------------|
  Ab||---------------------------------------------------------------------------------|
  Eb||---------------------------------------------------------------------------------|

  eb||----------------|
  Bb||----------------|
  Gb||--0-0---------0-|
  Db||-10-9-7-7-7-7-7-|
  Ab||----------------|
  Eb||----------------|
PM          X X X X

  eb||-----7---------------------------------------7------------------------|
  Bb||---8---8-----8-10-8-----8-7-8---8-10-8-----8---8-----8-10-8-----8-7-8-|
  Gb||-7-------7-7--------7-7-------7--------7-7-------7-7--------7-7-------|
  Db||----------------------------------------------------------------------|
  Ab||----------------------------------------------------------------------|
  Eb||----------------------------------------------------------------------|


  eb||-----------------------------------------------------------------------|
  Bb||-----------------------------------------------------------------------|
  Gb||--0-0---------0-0---------0-0--------0-0---------0-0---------0-0-------|
  Db||-10-9-7-7-7-7-7-5-5-5-5-5-4-5-5-5-5-10-9-7-7-7-7-7-5-5-5-5-5-4-5-5-5-5-|
  Ab||-----------------------------------------------------------------------|
  Eb||-----------------------------------------------------------------------|
PM          X X X X     X X X X     X X X      X X X X     X X X X     X X X

  eb||-------------|
  Bb||-------------|
  Gb||-----0-----0-|
  Db||---4-----4---|
  Ab||-3-----5-----|
  Eb||-------------|


[Chorus]

  eb||-----------------------------------------------------------------------------------|
  Bb||-12--12-12-8--8-8-8--12--12-12-10--10-10-10--12--12-12-8--8-8-8--7--8--10--8-8-8-8-|
  Gb||--0---0--0-0--0-0-0---0---0--0--0---0--0--0---0---0--0-0--0-0-0--0--0---0--0-0-0-0-|
  Db||--9---9--9-5--5-5-5---9---9--9--7---7--7--7---9---9--9-5--5-5-5--4--5---7--5-5-5-5-|
  Ab||-----------------------------------------------------------------------------------|
  Eb||-----------------------------------------------------------------------------------|

  eb||--------------------------------------------    ||------|
  Bb||-------8----------------------8-------------    ||------|
  Gb||-----7----------------------7---------------    ||-5~~~-|
  Db||-5/7-----9-7-7\5-7-5----5/7-----9-7-7\5-7-9- X2 ||-5~~~-|
  Ab||--------------------------------------------    ||-3~~~-|
  Eb||--------------------------------------------    ||------|

  eb||----------------------------------------------------------|
  Bb||----------------------------------------------------------|
  Gb||----------------------------------------------------------|
  Db||-5-5-x-5-x-5--2-2-x-2-x-2-2-2-x-2-2-5-5-x-5-x-5-5-5-x-5-5-|
  Ab||-3-3-x-3-x-3--2-2-x-2-x-2-2-2-x-2-2-3-3-x-3-x-3-3-3-x-3-3-|
  Eb||--------------0-0-x-0-x-0-0-0-x-0-0-3-3-x-3-x-3-3-3-x-3-3-|
PM

Its people just like you...
  eb||---------------------------------------------------------------------------|
  Bb||---------------------------------------------------------------------------|
  Gb||-9-9--9-7--------------------0-0-0~~-9-9--9-7----------------------0-0-0~~-|
  Db||----------9~~~-0h5h7p5--9-10-7\5-5~~----------9b(10)-0h5h7p5--9-10-7\5-5~~-|
  Ab||---------------------------------------------------------------------------|
  Eb||---------------------------------------------------------------------------|

its nice to know i wasnt worth
  eb||---------------------------------------------------|
  Bb||---------------------------------------------------|
  Gb||---------------------------------------------------|
  Db||-5-5-5-5-2-2-2-2-2-2-2-7-7-7-7-7-7-7-7-7-7-7-7-7-7-|
  Ab||-3-3-3-3-2-2-2-2-2-2-2-5-5-5-5-5-5-5-5-5-5-5-5-5-5-| X2
  Eb||---------0-0-0-0-0-0-0-----------------------------|

Its people just like you...
  eb||---------------------------------------------------------------------------|
  Bb||---------------------------------------------------------------------------|
  Gb||-9-9--9-7--------------------0-0-0~~-9-9--9-7----------------------0-0-(5)-|
  Db||----------9~~~-0h5h7p5--9-10-7\5-5~~----------9b(10)-0h5h7p5--9-10-7\5-----|
  Ab||---------------------------------------------------------------------------|
  Eb||---------------------------------------------------------------------------|


[Chorus]

  eb||-----------------------------------------------------------------------------------|
  Bb||-12--12-12-8--8-8-8--12--12-12-10--10-10-10--12--12-12-8--8-8-8--7--8--10--8-8-8-8-|
  Gb||--0---0--0-0--0-0-0---0---0--0--0---0--0--0---0---0--0-0--0-0-0--0--0---0--0-0-0-0-|
  Db||--9---9--9-5--5-5-5---9---9--9--7---7--7--7---9---9--9-5--5-5-5--4--5---7--5-5-5-5-|
  Ab||-----------------------------------------------------------------------------------|
  Eb||-----------------------------------------------------------------------------------|

  eb||--------------------------------------------    ||------|
  Bb||-------8----------------------8-------------    ||-3~~~-|
  Gb||-----7----------------------7---------------    ||-0~~~-|
  Db||-5/7-----9-7-7\5-7-5----5/7-----9-7-7\5-7-9- X2 ||-x----|
  Ab||--------------------------------------------    ||-3~~~-|
  Eb||--------------------------------------------    ||------|

  eb||--------------------------------------------------------------10-|
  Bb||-8-----8---------7h8p7-------7-8-7---------10--------10-10-10-10-|
  Gb||-7-7-7-7-7-7-7-7-------7-7-7-7-7-7-7-7-7-7--7-7-7-7-7-7--7--7--7-|
  Db||-0-0-0-0-0-0-0-0---------0-0-0-0-0-0-0-0-0--0-0-0-0-0-0--0---0-0-|
  Ab||-----------------------------------------------------------------|
  Eb||-----------------------------------------------------------------|

Rhythm Guitar


[Intro]
 
I'm not coming back...
  eb||------------------------------------------------------------------------------------|
  Bb||------------------------------------------------------------------------------------|
  Gb||--5--5-5-5------------9--9-9-9--7--7-7-7---5--5-5-5------------9--9-9-9--7--7-7-7---|
  Db||--5--5-5-5--5--5-5-5--9--9-9-9--7--7-7-7---5--5-5-5--5--5-5-5--9--9-9-9--7--7-7-7---|
  Ab||--3--3-3-3--5--5-5-5--7--7-7-7--5--5-5-5---3--3-3-3--5--5-5-5--7--7-7-7--5--5-5-5---|
  Eb||------------3--3-3-3---------------------------------3--3-3-3-----------------------|
(strumming Pattern Changes)
  eb||------------------------------------------------------------------------------------|
  Bb||------------------------------------------------------------------------------------|
  Gb||--3--5-55-----------9--9-99--7--7-77---5--5-55-----------9--9-99--7--7-77-----------|
  Db||--5--5-55--5--5-55--9--9-99--7--7-77---5--5-55--5--5-55--9--9-99--7--7-77-----------|
  Ab||--3--3-33--5--5-55--7--7-77--5--5-55---3--3-33--5--5-55--7--7-77--5--5-55-----------|
  Eb||-----------3--3-33------------------------------3--3-33-----------------------------|

 eb||-----------------------------------------------|
  Bb||----------------------------------------------|
  Gb||--5--5--5-5-5-5-5--5----5--5--5~5~5~5~5~~5~~~~|
  Db||--5--5--5-5-5-5-5--5----5--5--5~5~5~5~5~-5~~~~|
  Ab||--3--3--3-3-3-3-3--3----3--3--3-3-3-3-3--3----|
  Eb||----------------------------------------------|
PM            X X X X               X X X X


[Verse 1]

  eb||-----------------------------------------------------------|
  Bb||-----------------------------------------------------------|
  Gb||--5-5--5-5-5----------~~~~~~~7~7~7~~7~7~7~~7~7-7--7-7-7----|
  Db||--5-5--5-5-5---2-2-2--2-2-2~~7~7~7~~7~7~7~~7~7~7~~7~7~7----|
  Ab||--3-3--3-3-3---2-2-2--2-2-2--5-5-5--5-5-5--5-5-5--5-5-5----|
  Eb||---------------0-0-0--0-0-0--------------------------------|

  eb||-----------------------------------------------------------|
  Bb||-----------------------------------------------------------|
  Gb||--5-5--5-5-5----------~~~~~~~7~7~7~~7~7~7~~7~7-7--7-7-7----|
  Db||--5-5--5-5-5---2-2-2--2-2-2~~7~7~7~~7~7~7~~7~7~7~~7~7~7----|
  Ab||--3-3--3-3-3---2-2-2--2-2-2--5-5-5--5-5-5--5-5-5--5-5-5----|
  Eb||---------------0-0-0--0-0-0--------------------------------|

  eb||------------------------------------------------------------|
  Bb||------------------------------------------------------------|
  Gb||--5-5--5-5-5-5---------~~~~~~~7~7~7~~7~7~7~~7~7-7--7-7-7----|
  Db||--5-5--5-5-5-5--2-2-2--2-2-2~~7~7~7~~7~7~7~~7~7~7~~7~7~7----|
  Ab||--3-3--3-3-3-3--2-2-2--2-2-2--5-5-5--5-5-5--5-5-5--5-5-5----|
  Eb||----------------0-0-0--0-0-0--------------------------------|
PM           X X X X

  eb||-----------------------------------------------------------|
  Bb||-----------------------------------------------------------|
  Gb||--5-5--5-5-5----------~~~~~~~7~7~7~~7~7~7~~7~7-7--7-7-7----|
  Db||--5-5--5-5-5---2-2-2--2-2-2~~7~7~7~~7~7~7~~7~7~7~~7~7~7----|
  Ab||--3-3--3-3-3---2-2-2--2-2-2--5-5-5--5-5-5--5-5-5--5-5-5----|
  Eb||---------------0-0-0--0-0-0--------------------------------| 

  eb||-----------------------------------------------------------------------------------------|
  Bb||-----------------------------------------------------------------------------------------|
  Gb||---5-5--5-5-5-5--5-5--5-5-5-5~~5~5~~5~5~5~5~~5~5~~5~5~5~5--5-5--5-5-5-5--5-5--5-5-5-5-~--|
  Db||---5-5--5-5-5-5--5-5--5-5-5-5~~5~5~~5~5~5~5~~5~5~~5~5~5~5--5-5--5-5-5-5--5-5--5-5-5-5-~~-|
  Ab||---3-3--3-3-3-3--3-3--3-3-3-3--3-3--3-3-3-3--3-3--3-3-3-3--3-3--3-3-3-3--3-3--3-3-3-3----|
  Eb||-----------------------------------------------------------------------------------------|
PM            X X X X       X X X X       X X X X       X X X X       X X X X       X X X X


[Chorus]

  eb||------------------------------------------------------------------------------------|
  Bb||------------------------------------------------------------------------------------|
  Gb||--5--5-5-5------------9--9-9-9--7--7-7-7---5--5-5-5------------9--9-9-9--7--7-7-7---|
  Db||--5--5-5-5--5--5-5-5--9--9-9-9--7--7-7-7---5--5-5-5--5--5-5-5--9--9-9-9--7--7-7-7---|
  Ab||--3--3-3-3--5--5-5-5--7--7-7-7--5--5-5-5---3--3-3-3--5--5-5-5--7--7-7-7--5--5-5-5---|
  Eb||------------3--3-3-3---------------------------------3--3-3-3-----------------------|

(strumming Pattern Changes)
  eb||------------------------------------------------------------------------------------|
  Bb||------------------------------------------------------------------------------------|
  Gb||--3--5-55-----------9--9-99--7--7-77---5--5-55-----------9--9-99--7--7-77-----------|
  Db||--5--5-55--5--5-55--9--9-99--7--7-77---5--5-55--5--5-55--9--9-99--7--7-77-----------|
  Ab||--3--3-33--5--5-55--7--7-77--5--5-55---3--3-33--5--5-55--7--7-77--5--5-55-----------|
  Eb||-----------3--3-33------------------------------3--3-33-----------------------------|

  eb||----------------------------------------------|
  Bb||----------------------------------------------|
  Gb||--5--5--5-5-5-5-5--5----5--5--5~5~5~5~5~~5~~~~|
  Db||--5--5--5-5-5-5-5--5----5--5--5~5~5~5~5~-5~~~~|
  Ab||--3--3--3-3-3-3-3--3----3--3--3-3-3-3-3--3----|
  Eb||----------------------------------------------|
PM            X X X X               X X X X

Its people just like you...
  eb||----------------------------------------------------------|
  Bb||----------------------------------------------------------|
  Gb||----------------------------------------------------------|
  Db||-5-5-x-5-x-5--2-2-x-2-x-2-2-2-x-2-2-5-5-x-5-x-5-5-5-x-5-5-|
  Ab||-3-3-x-3-x-3--2-2-x-2-x-2-2-2-x-2-2-5-5-x-5-x-5-5-5-x-5-5-|
  Eb||--------------0-0-x-0-x-0-0-0-x-0-0-3-3-x-3-x-3-3-3-x-3-3-|

Its nice to know i wasn't worth...
  eb||---------------------------------------------------|
  Bb||---------------------------------------------------|
  Gb||---------------------------------------------------|
  Db||-5-5-5-5-2-2-2-2-2-2-2-7-7-7-7-7-7-7-7-7-7-7-7-7-7-|
  Ab||-3-3-3-3-2-2-2-2-2-2-2-5-5-5-5-5-5-5-5-5-5-5-5-5-5-| X2
  Eb||---------0-0-0-0-0-0-0-----------------------------|


[Chorus]

  eb||------------------------------------------------------------------------------------|
  Bb||------------------------------------------------------------------------------------|
  Gb||--5--5-5-5------------9--9-9-9--7--7-7-7---5--5-5-5------------9--9-9-9--7--7-7-7---|
  Db||--5--5-5-5--5--5-5-5--9--9-9-9--7--7-7-7---5--5-5-5--5--5-5-5--9--9-9-9--7--7-7-7---|
  Ab||--3--3-3-3--5--5-5-5--7--7-7-7--5--5-5-5---3--3-3-3--5--5-5-5--7--7-7-7--5--5-5-5---|
  Eb||------------3--3-3-3---------------------------------3--3-3-3-----------------------|
(strumming Pattern Changes)
  eb||------------------------------------------------------------------------------------|
  Bb||------------------------------------------------------------------------------------|
  Gb||--3--5-55-----------9--9-99--7--7-77---5--5-55-----------9--9-99--7--7-77-----------|
  Db||--5--5-55--5--5-55--9--9-99--7--7-77---5--5-55--5--5-55--9--9-99--7--7-77-----------|
  Ab||--3--3-33--5--5-55--7--7-77--5--5-55---3--3-33--5--5-55--7--7-77--5--5-55-----------|
  Eb||-----------3--3-33------------------------------3--3-33-----------------------------|


[Outro]

  eb||--------------------------------------------------------------10-|
  Bb||-8-----8---------7h8p7-------7-8-7---------10--------10-10-10-10-|
  Gb||-7-7-7-7-7-7-7-7-------7-7-7-7-7-7-7-7-7-7--7-7-7-7-7-7--7--7--7-|
  Db||-0-0-0-0-0-0-0-0---------0-0-0-0-0-0-0-0-0--0-0-0-0-0-0--0---0-0-|
  Ab||-----------------------------------------------------------------|
  Eb||-----------------------------------------------------------------|

************************************

| x    Dead note
| (n)  Ghost note
| h    Hammer-on
| p    Pull-off
| b    Bend
| /    Slide up
| \    Slide down
| ~    Vibrato 

************************************

            
            
Suggest correction
Creating personal tab
Creating personal tab
You can edit any tab online and save it as your Personal.

You can edit, replace or remove any tab part or add personal notes – all changes will be seen only by you.

Personal tabs can be accessed anytime from any device, even offline.
Learn more »
comments
print report bad tab
5 comments total. Showing first comments.
0 reply
MattMosca17 65 Jun 21, 2015 05:13 PM

Is this just the lead guitar? I'm having trouble following this. But its accurate from what I can follow.

0 reply
Tjlax03 373 Jun 21, 2015 05:41 PM

Yeah its just lead guitar. I can probably post the rhythm guitar in about a week

0 reply
WillisD7 10 Jun 25, 2015 04:44 AM

Post Rhythm

guest
You may want to rate the tab now too:
select rating
Wanna post a correction for this tab? Suggest correction