Oops, an error
Loading. Please wait.

Pretense tab

version 1
version 1

Whole song

Interactive

6,931 views 36 this week
2 commentsread comments
1 2 3 4 5
x 4
add to favorites
×
Save as Personal and add changes to this tab that will be seen only by you. Learn more ›
×
You can save this tab as Personal to edit and correct it or add notes. All changes will be seen only by you. Learn more »
launch autoscroll
font size
0
reset
how to read this tab
guitar tuner
edit
Autoscroll
slow
fast
+/-
esc
set tempo
stop
Artist: Knuckle Puck
Song: Preten
Tabbed by:
E-mail: arcade postcards@gmail.com

Tuning: Half-Step Down

[Intro] 
Bb-Gm-F-D#
e|----4---------------------------------------------------------------------|
B|----4---------------------------------------------------------------------|
G|-6--4--3--9---------------------------------------------------------------|
D|-8--6--4--9---------------------------------------------------------------|
A|-9--6--4--7---------------------------------------------------------------|
E|-7--4--0------------------------------------------------------------------|

(Repeat the intro with proper strumming until you hear "But neither will ever happen" on the D# chord)
(You play this for the chorus then you repeat the intro/verse for verse 2)
e|--4-------------------------------------------------------------------------|
B|--4-------------------------------------------------------------------------|
G|--4--3--9--9----------------------------------------------------------------|
D|--6--4--9--9----------------------------------------------------------------|
A|--6--4--7--7----------------------------------------------------------------|
E|--4--0----------------------------------------------------------------------|

(When he gets to the spoken word ("consider this the repercussion...") part, play this order) 
(the strumming is very weird here and chords change ALOT so try to listen carefully)
e|--4--------------4--------------4--------------4-------------------------------|
B|--4--------------4--------------4--------------4-------------------------------|
G|--4--3--9--3-----4--3--9--9-----4--6--9--3-----4--3--9--3----------------------|
D|--6--4--9--4-----6--4--9--9-----6--8--9--4-----6--4--9--4----------------------|
A|--6--4--7--4-----6--4--7--7-----6--9--7--4-----6--4--7--4----------------------|
E|--4--0-----0-----4--0-----------4--7-----0-----4--0-----0----------------------|

(After he screams "Make me the bad guy", the tone goes clean for the first chord (Gm) only then 
distortion again other than that its a regular chorus)

(After the second chorus you play the bridge which is a little weird)
(First you play these two chords and hold them (use a lot of verb on clean tone))
e|--4-------------------------------------------------------------------------|
B|--4-------------------------------------------------------------------------|
G|--4--3----------------------------------------------------------------------|
D|--6--4----------------------------------------------------------------------|
A|--6--4----------------------------------------------------------------------|
E|--4--0----------------------------------------------------------------------|

(Then distortion here)
e|---------------------------------------------------------------------------|
B|---------------------------------------------------------------------------|
G|--6------------------------------------------------------------------------|
D|--8------------------------------------------------------------------------|
A|--9------------------------------------------------------------------------|
E|--7------------------------------------------------------------------------|

(Then clean again here during the drum fills)
e|--4-------------------------------------------------------------------------|
B|--4-------------------------------------------------------------------------|
G|--4--3----------------------------------------------------------------------|
D|--6--4----------------------------------------------------------------------|
A|--6--4----------------------------------------------------------------------|
E|--4--0----------------------------------------------------------------------|
 
(Then distortion until the clean chorus)
e|---------------------------------------------------------------------------|
B|---------------------------------------------------------------------------|
G|--6------------------------------------------------------------------------|
D|--8------------------------------------------------------------------------|
A|--9------------------------------------------------------------------------|
E|--7------------------------------------------------------------------------|

(After that you play the chorus clean once and then distorted once before the outro which
is a continuation of the chorus so it's very easy to figure out.)


************************************

| b  Bend

************************************
Suggest correction
Creating personal tab
Creating personal tab
You can edit any tab online and save it as your Personal.

You can edit, replace or remove any tab part or add personal notes – all changes will be seen only by you.

Personal tabs can be accessed anytime from any device, even offline.
Learn more »
comments
print report bad tab
2 comments total.
0 reply
AlTheCharmander 20 Apr 03, 2016 06:36 PM

Pretense isn't actually half step down. It goes (from low E to high e): Eb, G, Bb, F, Bb, d.

guest
You may want to rate the tab now too:
select rating
Wanna post a correction for this tab? Suggest correction