Oops, an error
Loading. Please wait.

American Song Tab

37 views 1 this week
no commentswrite comment
1 2 3 4 5
please rate
add to favorites
launch autoscroll
font size
0
reset
how to read this tab
guitar tuner
Autoscroll
slow
fast
+/-
esc
set tempo
stop
Help us to improve Ultimate-Guitar.com Take our survey!
×
Author
american song



knuckle sandwich




TRANSCRIBED BY RUDY GUZMAN




guzman_84@hotmail.com




                                               
e:-------------------------------------------------------------|
B:-------------------------------------------------------------|
G:-------------------------------------------------------------|
D:-9--9--9----9--9---9--9---4--4--4---4--4---4--4---2--2--2----|
A:-7--7--7----7--7---7--7---2--2--2---2--2---2--2---0--0--0----|
E:-0--------0------0----------------0------0----------------0--|

e:---------------------------------------|
B:---------------------------------------|
G:---------------------------------------|
D:-4--4---4--4---------------------------|
A:-2--2---2--2--2--2--2-----2-2------2-2-|
E:------0-------0--0--0--0--0-0---0--0-0-|


  Safety pinned patches of...
e:---------------------------------------------------------------|
B:---------------------------------------------------------------|
G:---------------------------------------------------------------|
D:---9--9--9----9--9---9--9---4--4--4---4--4---4--4---2--2--2----|
A:---7--7--7----7--7---7--7---2--2--2---2--2---2--2---0--0--0----|
E:-0----------0------0----------------0------0----------------0--|

e:---------------------------------------|
B:---------------------------------------|
G:---------------------------------------|
D:-4--4---4--4---------------------------|
A:-2--2---2--2--2--2--2-----2-2------2-2-|
E:------0-------0--0--0--0--0-0---0--0-0-|

   Hey there Mr. President...
e:-------------------------------------------------------------|
B:-------------------------------------------------------------|
G:-------------------------------------------------------------|
D:-9--9--9----9--9---9--9---4--4--4---4--4---4--4---2--2--2----|
A:-7--7--7----7--7---7--7---2--2--2---2--2---2--2---0--0--0----|
E:-0--------0------0----------------0------0----------------0--|

                pm................             from
e:-------------------------------------------------|
B:-------------------------------------------------|
G:-------------------------------------------------|
D:-4--4---4--4---------------------9-9-9-9-9-9-9-9-|
A:-2--2---2--2--2--2-2-2-2-2-2-2-2-7-7-7-7-7-7-7-7-|
E:------0-------0--0-0-0-0-0-0-0-0-0-0-0-0-0-0-0-0-|
 
       New York to   California      this song is an American        Song
e:---------------------------------------------------------------------------------|
B:---------------------------------------------------------------------------------|
G:-9-9-9-9-9-9-9-9--4-4-4-4-4-4-4-4--2-2-2-2-2-2-2--4-4-4-4-4-4-4-4----------------|
D:-9-9-9-9-9-9-9-9--4-4-4-4-4-4-4-4--2-2-2-2-2-2-2--4-4-4-4-4-4-4-4--2-2-2-2-2-2-2-|
A:-7-7-7-7-7-7-7-7--2-2-2-2-2-2-2-2--0-0-0-0-0-0-0--2-2-2-2-2-2-2-2--2-2-2-2-2-2-2-|
E:-------------------------------------------------------------------0-0-0-0-0-0-0-|

e:-------------------------------------------------------|
B:-------------------------------------------------------|
G:-9--9-9-9-9--11-13-11-9--11--11-11-11-11-13-11-9-11-13-|
D:-x--x-x-x-x--x--x--x--x--x---x--x--x--x--x--x--x-x--x--|
A:-7--7-7-7-7--9--11-9--7--9---9--9--9--9--11-9--7-9--11-|
E:-------------------------------------------------------|

e:-----------------------------------------|
B:-----------------------------------------|
G:-2--2--2-2-2--4-4-4-4-4------------------|
D:-2--2--2-2-2--4-4-x-x-x--2-2-2-2-2-2-2-2-|
A:-0--0--0-0-0--2-2-2-2-2--2-2-2-2-2-2-2-2-|
E:-------------------------0-0-0-0-0-0-0-0-|

   I heard someone say...
e:---------------------------------------------------------------|
B:---------------------------------------------------------------|
G:---------------------------------------------------------------|
D:---9--9--9----9--9---9--9---4--4--4---4--4---4--4---2--2--2----|
A:---7--7--7----7--7---7--7---2--2--2---2--2---2--2---0--0--0----|
E:-0----------0------0----------------0------0----------------0--|

e:---------------------------------------|
B:---------------------------------------|
G:---------------------------------------|
D:-4--4---4--4---------------------------|
A:-2--2---2--2--2--2--2-----2-2------2-2-|
E:------0-------0--0--0--0--0-0---0--0-0-|

e:---------------------------------------------------------------|
B:---------------------------------------------------------------|
G:---------------------------------------------------------------|
D:---9--9--9----9--9---9--9---4--4--4---4--4---4--4---2--2--2----|
A:---7--7--7----7--7---7--7---2--2--2---2--2---2--2---0--0--0----|
E:-0----------0------0----------------0------0----------------0--|

                pm................
e:-------------------------------------------------|
B:-------------------------------------------------|
G:-------------------------------------------------|
D:-4--4---4--4---------------------9-9-9-9-9-9-9-9-|
A:-2--2---2--2--2--2-2-2-2-2-2-2-2-7-7-7-7-7-7-7-7-|
E:------0-------0--0-0-0-0-0-0-0-0-0-0-0-0-0-0-0-0-|

  from new york 
e:---------------------------------------------------------------------------------|
B:---------------------------------------------------------------------------------|
G:-9-9-9-9-9-9-9-9--4-4-4-4-4-4-4-4--2-2-2-2-2-2-2--4-4-4-4-4-4-4-4----------------|
D:-9-9-9-9-9-9-9-9--4-4-4-4-4-4-4-4--2-2-2-2-2-2-2--4-4-4-4-4-4-4-4--2-2-2-2-2-2-2-|
A:-7-7-7-7-7-7-7-7--2-2-2-2-2-2-2-2--0-0-0-0-0-0-0--2-2-2-2-2-2-2-2--2-2-2-2-2-2-2-|
E:-------------------------------------------------------------------0-0-0-0-0-0-0-|

e:---------------------------------------------------------------------------------|
B:---------------------------------------------------------------------------------|
G:-9-9-9-9-9-9-9-9--4-4-4-4-4-4-4-4--2-2-2-2-2-2-2--4-4-4-4-4-4-4-4----------------|
D:-x-x-x-x-x-x-x-x--x-x-x-x-x-x-x-x--2-2-2-2-2-2-2--4-4-4-4-4-4-4-4--2-2-2-2-2-2-2-|
A:-7-7-7-7-7-7-7-7--2-2-2-2-2-2-2-2--0-0-0-0-0-0-0--2-2-2-2-2-2-2-2--2-2-2-2-2-2-2-|
E:-------------------------------------------------------------------0-0-0-0-0-0-0-|


e:------------------------------------------------------------------------------------|
B:------------------------------------------------------------------------------------|
G:------------------------------------------------------------------------------------|
D:-9-9-9--2-2-----------9-9-9--4-4------4-4--9-9-9-9-9--2-2-2-2-2--4-4-4-4-4--6-6-4---|
A:-7-7-7--0-0--0-2-2p0--7-7-7--2-2--0h2-2-2--7-7-7-7-7--0-0-0-0-0--2-2-2-2-2--------7-|
E:------------------------------------------------------------------------------------|

e:-----------------------------------------------------------------------------------|
B:-----------------------------------------------------------------------------------|
G:-----------------------------------------------------------------------------------|
D:-9-9-9--2-2-----------9-9-9--4-4------4-4--9-9-9-9-9--2-2-2-2-2--4-4-4-4-4-4-4-4-4-|
A:-7-7-7--0-0--0-2-2p0--7-7-7--2-2--0h2-2-2--7-7-7-7-7--0-0-0-0-0--2-2-2-2-2-2-2-2-2-|
E:-----------------------------------------------------------------------------------|


  pm..........................
e:-----------------------------|
B:-----------------------------|
G:-----------------------------|
D:-----------------------------|
A:-2-2-2-2-2-2-2-2-2-2-2-2-2-2-|
E:-0-0-0-0-0-0-0-0-0-0-0-0-0-0-|

  verse
e:---------------------------------------------------------------|
B:---------------------------------------------------------------|
G:---------------------------------------------------------------|
D:---9--9--9----9--9---9--9---4--4--4---4--4---4--4---2--2--2----|
A:---7--7--7----7--7---7--7---2--2--2---2--2---2--2---0--0--0----|
E:-0----------0------0----------------0------0----------------0--|

e:---------------------------------------|
B:---------------------------------------|
G:---------------------------------------|
D:-4--4---4--4---------------------------|
A:-2--2---2--2--2--2--2-----2-2------2-2-|
E:------0-------0--0--0--0--0-0---0--0-0-|

e:---------------------------------------------------------------|
B:---------------------------------------------------------------|
G:---------------------------------------------------------------|
D:---9---------(9)------------4-----------(4)-------------2------|
A:---7---------(7)------------2-----------(2)-------------0------|
E:---0---------(0)-----------------------------------------------|

                pm................
e:------------------------------------|
B:------------------------------------|
G:------------------------------------|
D:-4----------------------------------|
A:-2------------2-2-2-2-2-2-2-2-2--2--|
E:--------------0-0-0-0-0-0-0-0-0--0--|


   from new york
e:---------------------------------------------------------------------------------|
B:---------------------------------------------------------------------------------|
G:-9-9-9-9-9-9-9-9--4-4-4-4-4-4-4-4--2-2-2-2-2-2-2--4-4-4-4-4-4-4-4----------------|
D:-9-9-9-9-9-9-9-9--4-4-4-4-4-4-4-4--2-2-2-2-2-2-2--4-4-4-4-4-4-4-4--2-2-2-2-2-2-2-|
A:-7-7-7-7-7-7-7-7--2-2-2-2-2-2-2-2--0-0-0-0-0-0-0--2-2-2-2-2-2-2-2--2-2-2-2-2-2-2-|
E:-------------------------------------------------------------------0-0-0-0-0-0-0-|

                                   pm.                   
e:--------------------------------------------------------------------------------|
B:--------------------------------------------------------------------------------|
G:-9-9-9-9-9-9-9-9--4-4-4-4-4-4-4-4-----2-2-2-2-2--4-4-4-4-4-4-4-4----------------|
D:-x-x-x-x-x-x-x-x--x-x-x-x-x-x-x-x--2--2-2-2-2-2--4-4-4-4-4-4-4-4--2-2-2-2-2-2-2-|
A:-7-7-7-7-7-7-7-7--2-2-2-2-2-2-2-2--0--0-0-0-0-0--2-2-2-2-2-2-2-2--2-2-2-2-2-2-2-|
E:------------------------------------------------------------------0-0-0-0-0-0-0-|

                                   pm.                   
e:--------------------------------------------------------------------------|
B:--------------------------------------------------------------------------|
G:-9-9-9-9-9-9-9-9--4-4-4-4-4-4-4-4-----2-2-2-2-2--4-4-4-4-4-4-4-4----------|
D:-9-9-9-9-9-9-9-9--4-4-4-4-4-4-4-4--2--2-2-2-2-2--4-4-4-4-4-4-4-4--------2-|
A:-7-7-7-7-7-7-7-7--2-2-2-2-2-2-2-2--0--0-0-0-0-0--2-2-2-2-2-2-2-2--2-----2-|
E:------------------------------------------------------------------0-----0-|




http://www.legalsounds.com/download-mp3/knuckle-sandwich/nice/album_579595    album

http://www.mtv.com/artists/knuckle-sandwich/discography/320617/

www.youtube.com/watch?v=VnySqwV9SGo                                           video

http://www.soundclick.com/bands/default.cfm?bandID=301457                     website

http://www.sing365.com/music/lyric.nsf/Knuckle-Sandwich-Biography/
BBFB88712B70E25448256CC6000EE687   bio



hillo son mex

19/11/12
Suggest correction
What's this?
You can suggest a correction to this tab. Community and Mods will review your correction and vote to approve or reject it.
comments
We did not receive enough feedback on this tab! Please rate:
print report bad tab
1 2 3 4 5
guest
You may want to rate the tab now too:
select rating
Please do not post tabs as comments. Select "correction" instead!