Oops, an error
Loading. Please wait.

High Hopes bass

8,541 views 24 this week
no commentswrite comment
1 2 3 4 5
x 8
add to favorites
×
Save as Personal and add changes to this tab that will be seen only by you. Learn more ›
×
You can save this tab as Personal to edit and correct it or add notes. All changes will be seen only by you. Learn more »
launch autoscroll
font size
0
reset
guitar tuner
edit
Autoscroll
slow
fast
+/-
esc
set tempo
stop
Difficulty
intermediate
-------------------------------------------------------------------------------
                           High Hopes - Kodaline
-------------------------------------------------------------------------------
Tabbed by: chris a
E-mail: allen.chris.gz@googlemail.com

Tuning: standard

I love this song and there wasnt a tab for it on bass so I thought I wouldd give it a shot
This is my first tab so any thoughts on how to make it better feel free to email



No bass until 0:51

1st Chorus

G|---------------------------------------------------------------------------|
D|------------------------------------------------------6--------------------|
A|---0----7----2---4--2--0----7---------4--2--0----7---------4--2--0----2----|
E|---------------------------------4-----------------------------------------|

Then no bass until 1:34

Verse

And in my dreams I meet the ghosts of all the people who have come and gone

G|------------------------------------------------------------------------------|
D|-----------------------------------------------------------------66-----------|
A|---77--6-66--6-44--4-44--4-00--7-77--7------4-44-222-00--7-77-7------4-44-222-|
E|---------------------------------------44-------------------------------------|

G|---------------------------------------------------------------------------|
D|---------------------------------------------------------------------------|
A|--00--0-00--0-22--2-22-----------------------------------------------------|
E|---------------------------------------------------------------------------|

2nd Chorus

G|---------------------------------------------------------------------------|
D|---------------------------------------------------------------------------|
A|---0--0--7-77--7--2--2--4--2--0--0--7-77--7--------4--2--0--0--7--77--7----|
E|---------------------------------------------4--4--------------------------|

G|---------------------------------------------------------------------------|
D|-----6--6------------------------------------------------------------------|
A|-----------4--2--0--0--0-00--0--2--2--2-22--2--0--0--0-00--0--2--2--2-22-2-|
E|---------------------------------------------------------------------------|

Solo  (121212 means 12 12 12)

G|---------------------------------------------------------------------------|
D|---------------------------------------------------------------------------|
A|--7--7-77-7--6--4--4--44-4--4/12--12-12\77-7/12-12\4--2--0--0--00-0--0-----|
E|---------------------------------------------------------------------------|

G|---------------------------------------------------------------------------|
D|---------------------------------------------------------------------------|
A|---2--2--2-22/12-121212----------------------------------------------------|
E|---------------------------------------------------------------------------|

Repeat 2nd chorus and then tag on this little bit at the end

G|---------------------------------------------------------------------------|
D|---------------------------------------------------------------------------|
A|---0~-----2~-----0~-----2~-------------------------------------------------|
E|---------------------------------------------------------------------------|

Thats it really, enjoy 


| /  slide up
| \  slide down
| ~  sustain

===============================================================================

            
            
Suggest correction
Creating personal tab
Creating personal tab
You can edit any tab online and save it as your Personal.

You can edit, replace or remove any tab part or add personal notes – all changes will be seen only by you.

Personal tabs can be accessed anytime from any device, even offline.
Learn more »
comments
print report bad tab
guest
Wanna post a correction for this tab? Suggest correction