Oops, an error
Loading. Please wait.

Arashi No Saxophone 5 Yagami Team Ost tab

79 views 3 this week
no commentswrite comment
1 2 3 4 5
3 more votes to show rating
add to favorites
×
Save as Personal and add changes to this tab that will be seen only by you. Learn more ›
×
You can save this tab as Personal to edit and correct it or add notes. All changes will be seen only by you. Learn more »
launch autoscroll
font size
0
reset
how to read this tab
guitar tuner
edit
Autoscroll
slow
fast
+/-
esc
set tempo
stop
Author
Difficulty
About this tab version
The tab is spaced so that you can understand the timing better. Also there are specifications on how to play certain parts. Was this info helpful? Yes No
Here is a link, to the cover video to help you understand some parts. 
https://www.youtube.com/watch?v=zu2JWGj388g&t=33s

[Intro]
e|------------------------------------|---------------------------------------|
B|------------------------------------|---------------------------------------|
G|--4--7-9-10-9-7----4--7-9-----------|--7-9-10-9-7----4--7-9--10-9-7-9-7-----|
D|--4--7-9-10-9-7----4--7-9---------9-|--7-9-10-9-7----4--7-9-----------------|
A|---------------------------4--7-8-9-|---------------------------------------|
E|---------------------------2--5-6-7-|---------------------------------------|

[Section A1]
e|----------------------|-------------------|----------------------|------------------------|
B|----------------------|-------------------|----------------------|------------------------|
G|-7--7-7--7--7---7--9--|--7--7-7--7--------|-7--7-7--7--7---7--9--|-7---7-9-7--10-9-7-9-7--|
D|--------------9-------|------------4--7-8-|--------------9-------|---9--------------------|
A|----------------------|-------------------|----------------------|------------------------|
E|----------------------|-------------------|----------------------|------------------------|

e|------------------10-12-|----------------------------------------|
B|---------10h11h12-------|---------10--11-10-8-10-8-----8--5---8--|
G|-9-9-7-9----------------|-9-9-7-9------------------9-7------7----|
D|------------------------|----------------------------------------|
A|------------------------|----------------------------------------|
E|------------------------|----------------------------------------|

The vibratos need to be very subtle
e|-------------------------------------------------------------|
B|-11-10-8-10-8---8--5---5-----------------------10-11-12~-----|
G|---------------------7-----10-9-7-9-7------------------------|
D|--------------------------------------9-7-9~-----------------|
A|-------------------------------------------------------------|
E|-------------------------------------------------------------|

[Section A2]
e|---------------------|------------------------|------------------10-12-|
B|---------------------|------------------------|---------10h11h12-------|
G|-7--7-7--7--7---7--9-|-7---7-9-7--10-9-7-9-7--|-9-9-7-9----------------|
D|--------------9------|---9--------------------|------------------------|
A|---------------------|------------------------|------------------------|
E|---------------------|------------------------|------------------------|

e|-12-10-12-----10--12--------------------12---------------------------------10--10-11-12-|
B|----------12---------11-10-8---8-10-11------11-8---------------10-11-12--12--12---------|
G|-----------------------------9-------------------9---9--11-12---------------------------|
D|----------------------------------------------------------------------------------------|
A|----------------------------------------------------------------------------------------|
E|----------------------------------------------------------------------------------------|

[Section B]
e|-----------------------10-12------|--------------------------|-----------------10-12~-|
B|----10/11--10-8-10/12--------12~\-|---8--10/11--10-8--10---8-|-10-11-12-11-12---------|
G|-9-9------------------------------|-9---9----------------7---|------------------------|
D|----------------------------------|--------------------------|------------------------|
A|----------------------------------|--------------------------|------------------------|
E|----------------------------------|--------------------------|------------------------|

e|----12--14-15-14--10-12~-|----12--14-15--17--15-14--10----------10---12---12/14-11----12---|
B|-12----------------------|-12--------------------------10h11h12----12--------------12------|
G|-------------------------|-----------------------------------------------------------------|
D|-------------------------|-----------------------------------------------------------------|
A|-------------------------|-----------------------------------------------------------------|
E|-------------------------|-----------------------------------------------------------------|

[Section C]
e|-12-12-12--14-15-14--10--------|-------------------------------------------|
B|------------------------10--12-|-------8-10-11--8--------------------------|
G|-------------------------------|--9-11------------8/9------11-12-11--12-9--|
D|-------------------------------|----------------------8--------------------|
A|-------------------------------|------------------------7------------------|
E|-------------------------------|-------------------------------------------|

e|------------10------------17--15-----------------15-13-|---------------------------------------------------|
B|-----------------------15--------15-13--------13-------|---------------------------------------------------|
G|-9--11-12-9------15-17------------------13-15----------|-10-12-13---12-13-15---13-15-16---15-16-18--14--16-|
D|-------------------------------------------------------|---------------------------------------------------|
A|-------------------------------------------------------|---------------------------------------------------|
E|-------------------------------------------------------|---------------------------------------------------|

[Section D1]
e|--------------------10-12-10------10----|-------------------|
B|--------10----10-11------------------12-|----------10h11h12-|
G|-7h9h11----11------------------11-------|---7h9h11----------|
D|----------------------------------------|-9-----------------|
A|----------------------------------------|-------------------|
E|----------------------------------------|-------------------|

e|-9h10-10-9h10-10-9h10-10-9h10-10----------|-9h10-10-9h10-10-9-10--------------------|
B|------------------------------------------|--------------------------------10----10-|
G|---------------------------------11-10-11-|----------------------11-10-11-----11----|
D|------------------------------------------|-----------------------------------------|
A|------------------------------------------|-----------------------------------------|
E|------------------------------------------|-----------------------------------------|

e|-9h10-10-9h10-10-9h10-10-9/10-10--12-13-12-10-|-9h10-10-9h10-10-9-10---------------------|
B|----------------------------------------------|-----------------------12-10--------------|
G|----------------------------------------------|-----------------------------11-9---------|
D|----------------------------------------------|----------------------------------12-9----|
A|----------------------------------------------|---------------------------------------12-|
E|----------------------------------------------|------------------------------------------|

[Section D2]
I recommend that you use alternate picking in this section. I play the 15th freth upwards, and then start to 
do the alternate in the next strings.
e|-------------------------------------------12-17-16-15-14----------------------|
B|----------------------------------------15----------------18-17-15-------------|
G|----------------------------------14-16----------------------------16-14-16----|
D|-9-7-9--12-9-12--14-12-14---15-16-------------------------------------------15-|
A|-------------------------------------------------------------------------------|
E|-------------------------------------------------------------------------------|

The slide is really fast. Also you will be doing economic picking between the B and the G string. Then to the 
D string and the A string
e|-------9-12--9/10\9--------------------------------------------------------|
B|----10--------------12-10-12---------------------7-10--9-8---7-------------|
G|-11--------------------------10----------------7---------------7h8h9-------|
D|--------------------------------14-12-14-----9-----------------------------|
A|-----------------------------------------8---------------------------------|
E|---------------------------------------------------------------------------|

[Section D3]
e|------------12-10---------10-|------------12-10-------------|--------------12-10----------10-|
B|------10-10-------12---10----|------10-10-------12----10-12-|--------10-10-------12----10----|
G|-9-11---------------11-------|-9-11----------------11-------|-9-9h11----------------11-------|
D|-----------------------------|------------------------------|--------------------------------|
A|-----------------------------|------------------------------|--------------------------------|
E|-----------------------------|------------------------------|--------------------------------|

e|------------------------|----------12-16--12-14--10-12--9-10--------------|
B|-10-12-10---------------|-12h14h15----------------------------12----10-12-|
G|----------11-10-9-------|----------------------------------------11-------|
D|------------------12----|-------------------------------------------------|
A|----------------------5-|-------------------------------------------------|
E|------------------------|-------------------------------------------------|

e|-10p7------12p9------14p10-------16p12-------17--19-|------------------------------------------|
B|------10p7------12p9-------12p10-------15p12--------|------------------------------------------|
G|----------------------------------------------------|-7-x-7-x-9--10-9-9-7--7-x-7-x-9-----------|
D|----------------------------------------------------|-7-x-7-x-9--10-9-9-7--7-x-7-x-9---------9-|
A|----------------------------------------------------|---------------------------------4--7-8-9-|
E|----------------------------------------------------|---------------------------------2--5-6-7-|

[Section A2]
e|---------------------|------------------------|------------------10-12-|
B|---------------------|------------------------|---------10h11h12-------|
G|-7--7-7--7--7---7--9-|-7---7-9-7--10-9-7-9-7--|-9-9-7-9----------------|
D|--------------9------|---9--------------------|------------------------|
A|---------------------|------------------------|------------------------|
E|---------------------|------------------------|------------------------|

e|-12-10-12-----10--12--------------------12---------------------------------10--10-11-12-|
B|----------12---------11-10-8---8-10-11------11-8---------------10-11-12--12--12---------|
G|-----------------------------9-------------------9---9--11-12---------------------------|
D|----------------------------------------------------------------------------------------|
A|----------------------------------------------------------------------------------------|
E|----------------------------------------------------------------------------------------|

[Section B]
e|-----------------------10-12------|--------------------------|-----------------10-12~-|
B|----10/11--10-8-10/12--------12~\-|---8--10/11--10-8--10---8-|-10-11-12-11-12---------|
G|-9-9------------------------------|-9---9----------------7---|------------------------|
D|----------------------------------|--------------------------|------------------------|
A|----------------------------------|--------------------------|------------------------|
E|----------------------------------|--------------------------|------------------------|

e|----12--14-15-14--10-12~-|----12--14-15--17--15-14--10----------10---12---12/14-11----12---|
B|-12----------------------|-12--------------------------10h11h12----12--------------12------|
G|-------------------------|-----------------------------------------------------------------|
D|-------------------------|-----------------------------------------------------------------|
A|-------------------------|-----------------------------------------------------------------|
E|-------------------------|-----------------------------------------------------------------|

[Section C]
e|-12-12-12--14-15-14--10--------|-------------------------------------------|
B|------------------------10--12-|-------8-10-11--8--------------------------|
G|-------------------------------|--9-11------------8/9------11-12-11--12-9--|
D|-------------------------------|----------------------8--------------------|
A|-------------------------------|------------------------7------------------|
E|-------------------------------|-------------------------------------------|

e|------------10------------17--15-----------------15-13-|---------------------------------------------------|
B|-----------------------15--------15-13--------13-------|---------------------------------------------------|
G|-9--11-12-9------15-17------------------13-15----------|-10-12-13---12-13-15---13-15-16---15-16-18--14--16-|
D|-------------------------------------------------------|---------------------------------------------------|
A|-------------------------------------------------------|---------------------------------------------------|
E|-------------------------------------------------------|---------------------------------------------------|

[Section D1]
e|--------------------10-12-10------10----|-------------------|
B|--------10----10-11------------------12-|----------10h11h12-|
G|-7h9h11----11------------------11-------|---7h9h11----------|
D|----------------------------------------|-9-----------------|
A|----------------------------------------|-------------------|
E|----------------------------------------|-------------------|

e|-9h10-10-9h10-10-9h10-10-9h10-10----------|-9h10-10-9h10-10-9-10--------------------|
B|------------------------------------------|--------------------------------10----10-|
G|---------------------------------11-10-11-|----------------------11-10-11-----11----|
D|------------------------------------------|-----------------------------------------|
A|------------------------------------------|-----------------------------------------|
E|------------------------------------------|-----------------------------------------|

e|-9h10-10-9h10-10-9h10-10-9/10-10--12-13-12-10-|-9h10-10-9h10-10-9-10---------------------|
B|----------------------------------------------|-----------------------12-10--------------|
G|----------------------------------------------|-----------------------------11-9---------|
D|----------------------------------------------|----------------------------------12-9----|
A|----------------------------------------------|---------------------------------------12-|
E|----------------------------------------------|------------------------------------------|

[Section D2]
I recommend that you use alternate picking in this section. I play the 15th freth upwards, and then start to 
do the alternate in the next strings.
e|-------------------------------------------12-17-16-15-14----------------------|
B|----------------------------------------15----------------18-17-15-------------|
G|----------------------------------14-16----------------------------16-14-16----|
D|-9-7-9--12-9-12--14-12-14---15-16-------------------------------------------15-|
A|-------------------------------------------------------------------------------|
E|-------------------------------------------------------------------------------|

The slide is really fast. Also you will be doing economic picking between the B and the G string. Then to the 
D string and the A string
e|-------9-12--9/10\9--------------------------------------------------------|
B|----10--------------12-10-12---------------------7-10--9-8---7-------------|
G|-11--------------------------10----------------7---------------7h8h9-------|
D|--------------------------------14-12-14-----9-----------------------------|
A|-----------------------------------------8---------------------------------|
E|---------------------------------------------------------------------------|

[Section D3]
e|------------12-10---------10-|------------12-10-------------|--------------12-10----------10-|
B|------10-10-------12---10----|------10-10-------12----10-12-|--------10-10-------12----10----|
G|-9-11---------------11-------|-9-11----------------11-------|-9-9h11----------------11-------|
D|-----------------------------|------------------------------|--------------------------------|
A|-----------------------------|------------------------------|--------------------------------|
E|-----------------------------|------------------------------|--------------------------------|

e|------------------------|----------12-16--12-14--10-12--9-10--------------|
B|-10-12-10---------------|-12h14h15----------------------------12----10-12-|
G|----------11-10-9-------|----------------------------------------11-------|
D|------------------12----|-------------------------------------------------|
A|----------------------5-|-------------------------------------------------|
E|------------------------|-------------------------------------------------|

e|-10p7------12p9------14p10-------16p12-------17--19-|------------------------------------------|
B|------10p7------12p9-------12p10-------15p12--------|------------------------------------------|
G|----------------------------------------------------|-7-x-7-x-9--10-9-9-7--7-x-7-x-9-----------|
D|----------------------------------------------------|-7-x-7-x-9--10-9-9-7--7-x-7-x-9---------9-|
A|----------------------------------------------------|---------------------------------4--7-8-9-|
E|----------------------------------------------------|---------------------------------2--5-6-7-|


************************************

| h  Hammer-on
| ~  Vibrato
| /  Slide up
| \  Slide down
| p  Pull-off
| x  Dead note

************************************

            
            
Suggest correction
Creating personal tab
Creating personal tab
You can edit any tab online and save it as your Personal.

You can edit, replace or remove any tab part or add personal notes – all changes will be seen only by you.

Personal tabs can be accessed anytime from any device, even offline.
Learn more »
Give kudos to tab author, rate the tab!
1 2 3 4 5
comments
print report bad tab
guest
You may want to rate the tab now too:
select rating
Wanna post a correction for this tab? Suggest correction