Oops, an error
Loading. Please wait.

Graveyard Tree bass

1,965 views 1 this week
no commentswrite comment
1 2 3 4 5
3 more votes to show rating
add to favorites
×
Save as Personal and add changes to this tab that will be seen only by you. Learn more ›
×
You can save this tab as Personal to edit and correct it or add notes. All changes will be seen only by you. Learn more »
launch autoscroll
font size
0
reset
guitar tuner
edit
Autoscroll
slow
fast
+/-
esc
set tempo
stop
Performed on upright bass

Intro/Main verse
G :------------------------------------------------------|
D :------------------------------------------------------|
A :------54356------5435---------------------------------|
E :3---6------3---6--------------------------------------|

Verse 2(Break in between main verse)
G :--------------------------------------------------------|
D :--------------------------------------------------------|
A :--------------------------------------------------------|
E :\00000-55533666-----------------------------------------|

Chorus
G :------------------------------------------------------|
D :------------------------------------------------------|
A :------------575---------------------------------------|
E :7777-2222555----77------------------------------------|

Solo:
	Main Verse x1

G :--------------------------------------------------------|
D :--575-----575-------------------------------------------|
A :57---75-57---75-35--------------------------------------|
E :--------------------------------------------------------|

  Break verse(verse 2)x1

  Main verse x1

G :-------------------------------------------------------------|
( x2 )D :-11-11-11-11-11-12-11----------------------------------|
      A :---9--9--9--9--------12--------------------------------|
E :-------------------------------------------------------------|

Outro:

G :------------------------------------------------------|
D :------------------------------------------------------|
A :-------------575--------------------------------------|
E :-7-70-2-20-5-----7------------------------------------|

Jump back into chorus---and end

--------------------------                 ---------------------------------------------|
                                    ----------------------------------------------------|

How the song goes in order:

Wait for drums..

Main verse x2
	Break-2nd verse x1
Main verse x1

Chorus verse x4
Main verse x 4
	Break -2nd verse x1
Main verse x1

Chorus verse x4
	Solo verses
Main verse x2
	Break verse x1
Main verse x1
Chorus verse x4
	Outro verse x2
Chorus verse x1

I know its not perfect, but I can only stand attention for so long till I get 
 Also I tabbed this on a fretted electric bass, the notes are the same but as far as it goes for 
you're gonna have to tell me.

            
            
Suggest correction
Creating personal tab
Creating personal tab
You can edit any tab online and save it as your Personal.

You can edit, replace or remove any tab part or add personal notes – all changes will be seen only by you.

Personal tabs can be accessed anytime from any device, even offline.
Learn more »
Give kudos to tab author, rate the tab!
1 2 3 4 5
comments
print report bad tab
guest
Wanna post a correction for this tab? Suggest correction