Oops, an error
Loading. Please wait.

Vampires Curse bass

1,447 views 1 this week
no commentswrite comment
1 2 3 4 5
2 more votes to show rating
add to favorites
×
Save as Personal and add changes to this tab that will be seen only by you. Learn more ›
×
You can save this tab as Personal to edit and correct it or add notes. All changes will be seen only by you. Learn more »
launch autoscroll
font size
0
reset
guitar tuner
edit
Autoscroll
slow
fast
+/-
esc
set tempo
stop
Author
Difficulty
KOFFIN KATS
 
 ~ Vampire's curse

Standard tuning, 
(Eadg)          

=================================================
=======================================
==============================
====================
==========
===
=================================================

OK, lets straighten this out real quick,
the bassist/singer for the koffin kats uses
an upright bass with no frets.
allowing his notes to possibly be a little sharp or
flat and making it jhust that much harder to play it
on an ordinary bass....just saying lol       




anyway so here's my attempt everyone, enjoy!
(and play with feeling)

Main Riff:
g|---------------------------------------|
d|-2-5-2-5-2-5-------4-5-4---7-5-4-------|
a|-------------5-3-3-------5-------------|x8
E|---------------------------------------| (this goes throughout everything until first chorus)

Chorus:
g|------------------------------------------|
d|----------------------------4-5-4---------|
a|--3-3-3-3-2-2-2-2-7-7-7-7-7---------------|x3
E|------------------------------------------|

on the fourth time around do this:
g|------------------------------------------|
d|----------2-2-2-2-2-2-2-2-----------------|
a|--3~-2~-----------------------------------|x1
E|------------------------------------------|

which will lead back into the main bass riff again
x6
chorus again: whole chorus x1

Then the guitarist starts a solo, so the bass line pretty much just goes back to:

Main riff: x4
Chorus:x4

After that there's a little bridge:

g|-----------5-------------|
d|-----5-7-8---8-7-5-------|
a|---7---------------------|x2
E|-------------------------|

g|-----------5-------5---5---5---------|
d|-----5-7-8---8-7-5---8---8---8-7-5---|
a|---7---------------------------------|
E|-------------------------------------|

Main Riff:x4

Chorus:x2

then just:

g|---------------------------|
d|---------------------------|
a|----5~----5~----5~----5~---|
E|---------------------------|


I dont really write tabs that often but i couldnt help it!
cus this is a really good song and i didnt see a tab here for bass.
 anyway, if you listen to the song and follow the tab carefully,
 its pretty easy. but you need good technique and rhythm skills!

^vv^
Suggest correction
Creating personal tab
Creating personal tab
You can edit any tab online and save it as your Personal.

You can edit, replace or remove any tab part or add personal notes – all changes will be seen only by you.

Personal tabs can be accessed anytime from any device, even offline.
Learn more »
Give kudos to tab author, rate the tab!
1 2 3 4 5
comments
print report bad tab
guest
You may want to rate the tab now too:
select rating
Wanna post a correction for this tab? Suggest correction